Reel Big Fish - Ban The Tubetop Chords & Tabs

 

Ban The Tubetop Chords & Tabs

Reel Big Fish Chords & Tabs

Version: 1 Type: Bass Tab 0 ratings
1 star 2 stars 3 stars 4 stars 5 stars
comments

Ban The Tubetop Bass Tab

Normal Tuning


s=slap p=pop

Intro
G-------------------------------------------------------------|
D-------------------------------------------------------------|
A-5-3553---------5-335-35--------5335----------553553---------|
E--------2-2-3-3----------22-332------2-22-332--------222-332-|

Verse
  ss pspp s spspps spspps spspp
G-------------------------------|
D----4-55----4-55---4-55---4-55-|
A-5-------5------5------5-------|
E---2-3-----2-3----2-3----2-3---|

Chorus
G--------------------------------442-22242-----4-------------------------------|
D--------------24----42-------------4-----4---4-4------------------------------|
A-555552200000----222----------55-----------22---2-----------------------------|
E-----------------------333555--------------------3333-5555-22222222-3333-5555-|
[ Tab from: http://www.guitartabs.cc/tabs/r/reel_big_fish/ban_the_tubetop_btab.html ]
Verse
  ss pspp s spspps spspps spspp
G-------------------------------|
D----4-55----4-55---4-55---4-55-|
A-5-------5------5------5-------|
E---2-3-----2-3----2-3----2-3---|

Bridge
G---------------------------------------------------------------------------------------------------------------|
D----------------7-545455---------------------------------------------------------------------------------------|
A-----------55-79----------------------------------------------457-55-55-5~-5-35-----5-35-----5-35-----5-35-----|
E-3333-5555---------------3333-5555-2222222-33333-555-3333333-5------------------2-3------2-3------2-3------2-3-|

Chorus
G--------------------------------442-22242-----4-------------------------------|
D--------------24----42-------------4-----4---4-4------------------------------|
A-555552200000----222----------55-----------22---2-----------------------------|
E-----------------------333555--------------------3333-5555-22222222-3333-5555-|
Comments