Reef - Superhero Chords & Tabs

 

Superhero Chords & Tabs

Reef Chords & Tabs

Version: 2 Type: Tab 0 ratings
1 star 2 stars 3 stars 4 stars 5 stars
comments

Superhero Tab

   
Reef: Superhero


h=hammer on
p=pull off
x=dampen

Main riff:


E----2---2x-xxxx-2x----3--3-----------------|
B----3---3x-xxxx-3x----3--3-----5p0-3p0-1p0-|
G----2---2x-xxxx-2x----0--0--------0---0----|
D----0---0x-xxxx-0x----0--0--5h7------------|
A-----------xxxx-------2--------------------|
E-----------xxxx-------3--------------------|


repeat through intro and verses..

chorus:

G(sus4)       C9                      D/D4
"superhero i'm dancin' and i feel like you"


Bridge (i think these chords are in the correct order, i don't have my guitar right now)

[ Tab from: http://www.guitartabs.cc/tabs/r/reef/superhero_tab_ver_2.html ]
            D              C(dim)          C              G
E----10--10--10--10-|8---8---8---8--|8---8---8---8-|7---7---7---7--|
B----10--10--10--10-|10--10--10--10-|8---8---8---8-|8---8---8---8--|
G----11--11--11--11-|11--11--11--11-|9---9---9---9-|7---7---7---7--|  x5
D-------------------|---------------|--------------|---------------|
A-------------------|---------------|--------------|---------------|
E-------------------|---------------|--------------|---------------|
            "Sing me a song I'll fly away (repeat)"


End riff:

E----------------------|
B----------------------|
G----------------------|
D----------------------|   x6
A----0--2--3--2--0-----|
E-------------------3--|


E----------------------------------------------------------2-|
B----------------------------------------------------------3-|
G----------------------------------------------------------2-| strum to end
D----------------------------------------------------------0-|
A----0--2--3---0--2--3---0--2--3---0--2--3---0--2--0-------0-|
E------------------------------------------------------------|

Transcribed by: Steven Legowski
e-mail: legowland@fsmail.net
Comments