Reef - Place Your Hands Chords & Tabs

 

Place Your Hands Chords & Tabs

Reef Chords & Tabs

Version: 2 Type: Bass Tab 0 ratings
1 star 2 stars 3 stars 4 stars 5 stars
comments

Place Your Hands Bass Tab

                          BASSLINE FOR PLACE YOUR HANDS
                               As recorded by Reef
                              (From the album GLOW)


Listen to song for proper timing

|----|-----------|----------------------||-----7-----7---------||
|----|-----------|-5----(5)-(5)-(5)-----||o-----h7-9----------o||
|----|-7-------5-|------------------5-8-||o-5----------9h7-9--o||
|----|-----------|----------------------||---------------------||
  12 bar rest      Verse 2,3

 $                 X 4
||-----7-----7--------||----h7-9-7----|----h7-9-7-------|
||o-----h7-9---------o||-----------9--|-----------9-5\--|
||o-5----------9h7-9-o||-5------------|-5---------------|
||--------------------||--------------|-----------------|


||-----7-----7--------||-------7------|---------------||
||o-----h7-9---------o||-----5---5----|-5----(5)-5-5--||
||o-5----------9h7-9-o||-7---------7--|---------------||
||--------------------||--------------|---------------||


                                                 To Coda
|---------------|------------------|----------------------|
|---------------|------h4-5----5-5-|----------------------|
|-5--------h5-7-|-5----------------|-5--------h5-7--------|
|---------------|------------------|----------------------|
  Put your hands on

|------------------|---------------|-------------------|
|------------------|---------------|------h4-5----5-5--|
|-5----------------|-5--------h5-7-|-5-----------------|
|------h2-3--x-3-3-|---------------|-------------------|


                                                                  X 3
|---------------|-------------||----------------|---------------------||
|---------------|-------------||o---------2---5-|-(5)-5--5-5-5-------o||
|-5-------xh5-7-|-5-----5-5-5-||o-2---2-5---5---|---------------0-0--o||
|---------------|-------------||----------------|---------------------||
                                  1 2 + 3 + 4 +
                   you can not hide


|---------------|-------------|-----------------||---------------|-------------------|
|---------2-4---|-------------|-----------------||---------------|------h4-5----5-5--|
|-2---2-5-----5-|-------------|-----------xh5-7-||-5-------xh5-7-|-5----------x------|
|---------------|-3---3-3---3-|-3---3-3---------||---------------|-------------------|
                                                  put your hands on

[ Tab from: http://www.guitartabs.cc/tabs/r/reef/place_your_hands_btab_ver_2.html ]
                       D.S. al Coda           Coda &
|---------------|------------------||-----------------------------|
|---------------|------------------||-----------------------------|
|-5-------xh5-7-|-5----------------||-----------5-----------------|
|---------------|------h2-3--x-3-3-||----------------h2-3--x-3-3--|



|----------|---------|---------|------------|--------------|
|----------|---------|---------|------------|--------------|
|-5--------|---------|---------|-------h3-4-|-5-------x-5--|
|----------|---------|---------|------------|--------------|
                                              put your hands


||-------------------|--------------||-----------|-----------------|
||o------h4-5----5-5-|-------------o||-----------|-----------------|
||o-5----------x-----|-5-------x-5-o||-5-------5-|-7--7-7-7-7-7-7--|
||-------------------|--------------||-----------|-----------------|


                                     X 6
|-----------------| |-----7-----7--------| |-------7------|---------------|
|-5-5-5-5-5-5-5-5-| |o-----h7-9---------o| |-----5---5----|-5----(5)-5-5--|
|-----------------| |o-5----------9h7-9-o| |-7---------7--|---------------|
|-----------------| |--------------------| |--------------|---------------|
                        Solo

                                 X 4
||----------------|-------------------||--|
||o---------------|------------------o||--|
||o-5-------xh5-7-|-5----------------o||--|
||----------------|------h2-3--x-3-3--||--|
    put your hands on

             X 3
||-------9------||----*|
||o--------7---o||----*|
||o-5----------o||-5--*|
||--------------||----*|

If you download the program below I will email you the (Power Tab) Version
my email address gemini67@globalfreeway.com.au
--------------------------------------------------------------------------------
Legend
------
(5) = tied note
 h  = hammer-on to next fret no.	 p  = pull-off	 
 |  = bar               ||  = double bar
 b  = bend		||* = repeat start
 r  = bend release	*|| = repeat end
 /  = slide up/down	*|  = double bar (end)

--------------------------------------------------------------------------------

******************************************************************************************
* This file was generated with Power Tab Editor - Get it at http://home.tct.net/~blarsen *
******************************************************************************************
Comments