Reef - Naked Chords & Tabs

 

Naked Chords & Tabs

Reef Chords & Tabs

Version: 1 Type: Bass Tab 0 ratings
1 star 2 stars 3 stars 4 stars 5 stars
comments

Naked Bass Tab

Band: Reef
Song: Naked
Alubm: Replenish
Tabber: Nathan Keir
Email: nath_keir@hotmail.com


Verse

G|-------------------------------------------------------------|
D|-------------------------------------------------------------|
A|-------------------------------------------------------------|
D|------0-0-------0---0-0--------------------------------------|


Chorus

G|---------------------------------------------------------------------|
D|---------------------------------------------------------------------|
A|----------------------------------3--5-------3--5--------------------|
D|--0-0-0--33333333-55555555--0-0--------0-0---------33333333-55555555-|


Bridge/Guitar solo

G|--------------5---------------5-------------|
D|--------------------------------------------|
A|-----------3----x-3-3------3----x-3-3-------|
D|------0-0-------------0-0-------------------|

Outro
[ Tab from: http://www.guitartabs.cc/tabs/r/reef/naked_btab.html ]
G|-------------------------------------------------------------|
D|-------------------------------------------------------------|
A|--------------------------------------3--5--------3--5-------|
D|-----00000000-3333333-55555555--0-0---------0-0--------------|

G|-----------------------------------------------------------------|
D|-----------------------------------------------------------------|
A|-----------------------------3--5--------3--5--------------------|
D|----33333333-55555555--0-0---------0-0---------33333333-55555555-|

G|-------------------------------------------------|
D|-------------------------------------------------|
A|------------3--5--------3--5---------------------|
D|------0-0---------0-0---------33333333-55555555--|


Verse x9
Chorus x1
Verse x9
Chorus x1
Bridge/Guitar solo x 4.5
Outro x1

End with just drums for a few bars.  p.s. check out the subway to venus tab i posted, i 
to log in though.
Comments