Redfoot - Untitled Song Chords & Tabs

 

Untitled Song Chords & Tabs

Redfoot Chords & Tabs

Version: 2 Type: Tab 0 ratings
1 star 2 stars 3 stars 4 stars 5 stars
comments

Untitled Song Tab

   
Band:Redfoot
Song:Untitled Song (Stones, Zeppelin, Hendix, Creed, Korn)
Tabbed by:Matt  thirdlittletoe@aol.com
Great up and coming band - REDFOOT. This is a part of one of their songs from the soon to be released
album - "Southwestern". Really mellow stuff. They're a bluesy-rock-folk mix, though this sounds
kinda classical.Check it out on Napster - "redfoot-untitledsong.mp3"
They ROCK!!


     Let ring throughout

     C               G               Am              G

-]]--------------0---------------0---------------0---------------0---|
-]]--1---------------3---------------1---------------3---------------|
-]]----------0---------------0---------------2---------------0-------|
-]]------2---------------0---------------2---------------0-----------|
-]]--3---------------2---------------0---------------2---------------|
-]]------------------------------------------------------------------|
 ]]
 ]]
 ]]                                     hold(13)2beats
 ]]                                     then bend
 ]]
-]]------------------------------------------------------------------|
-]]------------------13~--------------13---b-15-r-13-----------------|
-]]--------------------------------------------------14--------------|
-]]------------------------------------------------------------------|
-]]------------------------------------------------------------------|
-]]------------------------------------------------------------------|

     C               G               Am              G
[ Tab from: http://www.guitartabs.cc/tabs/r/redfoot/untitled_song_tab_ver_2.html ]
-]]--------------0---------------0---------------0----------------0---|
-]]--1---------------3---------------1---------------3----------------|
-]]----------0---------------0---------------2----------------0-------|
-]]------2---------------0---------------2---------------0------------|
-]]--3---------------2---------------0---------------2----------------|
-]]-------------------------------------------------------------------|
 ]]
 ]]
 ]]
 ]]  sl.
 ]]
-]]------------12-------------------------------------------------------|
-]]---------15----15-13--12h13---12-------------------------------------|
-]]--14/16---------------------------14--------------13~-------13b15r13-|
-]]---------------------------------------------------------------------|
-]]---------------------------------------------------------------------|
-]]---------------------------------------------------------------------|

     Bm              Am              E7

-]]--------------2---------------0-------------------0-----------------|
-]]--3---------------1---------------0-----------------------0---------|
-]]----------4---------------2---------------1-----------1-------1-----|
-]]------4---------------2---------------0-------0---------------------|
-]]--2---------------0---------------2---------------------------------|
-]]--------------------------------------------------------------------|
 ]]
 ]]
 ]]
 ]]
 ]]
-]]--------------------------------------------------------------------|
-]]--13--12----------13-12-15-13-12------------------------------------|
-]]----------14--12------------------14---12---------------------------|
-]]--------------------------------------------14----------------------|
-]]--------------------------------------------------------------------|
-]]--------------------------------------------------------------------|

                                     C

-]]------0-------0-------0---------------------------------------------|
-]]--3-------3-------3------3p1p0----1---------------------------------|
-]]--------------------------------0-0---------------------------------|
-]]----------------------------------2---------------------------------|
-]]----------------------------------3---------------------------------|
-]]--------------------------------------------------------------------|
 ]]
 ]]
 ]]
 ]]
 ]]
-]]-----12-12-12-12-12-12-12-------------------------------------------|
-]]-\15--15-15-15-15-15-15-15p13p12--13--------------------------------|
-]]--------------------------------12----------------------------------|
-]]--------------------------------------------------------------------|
-]]--------------------------------------------------------------------|
-]]--------------------------------------------------------------------|
Comments