Redeeming Souls - Ender Of Dreams Chords & Tabs

 

Ender Of Dreams Chords & Tabs

Redeeming Souls Chords & Tabs

Version: 1 Type: Tab 0 ratings
1 star 2 stars 3 stars 4 stars 5 stars
comments

Ender Of Dreams Tab

Redeeming Souls,Ender of Dreams.
Tabbed by Royoshi.
  
No tune downs needed (6 string)
E----------9-----7--5-7---------10----9---7--5--6
B----------10------------8------10--------------5
G------8-----------------8------------9----------5

Riff 2
D----4-4-4-5-5-8-5--5--4-4-4-3-4-4-4-5-5-8-5--5--4-2
A----4-4-4-5-5-8-5--5--4-4-4-3-4-4-4-5-5-8-5--5--4-2
E----4-4-4-5-5-8-5--5--4-4-4-3-4-4-4-5-5-8-5--5--4-2
[ Tab from: http://www.guitartabs.cc/tabs/r/redeeming_souls/ender_of_dreams_tab.html ]
Riff 2 (second guitar)
E-----4-4-4-8-12-11-14---2--5-7-6-7/5
B-----4-4-4-8-12-11-14---2--5-7-6-7/0

Riff 3 (distortion)
A-----0--1-00-0-1-3-6--0--1-00-1-3-7-0-1-0/1-000
E-----2--3-22-2-3-5-8--2--3-22-3-5-9-2-3-2/3-222

Riff 4 Ending my days over...
D------------------5-9-8---0----1----2---55-10-9
A------------------5-8-7---0----1----2---55-9-8
E----0----1----2---5-7-6---0----1----2---55-8-7

Riff 5 outro
high E---------14/4--1/3----14/2--0/2----15/0--000 
:: Ultimate Guitar Archive :: 
http://www.ultimate-guitar.com 

Comments