Redding Otis - The Dock Of The Bay Chords & Tabs

 

The Dock Of The Bay Chords & Tabs

Redding Otis Chords & Tabs

Version: 1 Type: Bass Tab 0 ratings
1 star 2 stars 3 stars 4 stars 5 stars
comments

The Dock Of The Bay Bass Tab

                             (Sittin' on) The Dock of the Bay


By Otis Redding

Tab by Francesco 'BMCL' Miceli.                                                                       
For comments, information or insults: 

     G.Miceli@iol.it


   Intro                  4x      Verse                                           
G||--------------------------||-------------------------|----------------------|
D||*------------------------*||*------------------------|----------------------|
A||*------------3/5---3/5---*||*-------5-------5--------|------9-----9---------|
E||---3------3---------------||---3---------3-----5--7--|---------7-------7----|


                                              2x                         
-------------------------|-----------------------||------------------------|
-------------------------|----------------------*||------------------------|
-------10----------------|------7---------7-----*||-------5-------5--------|
--8----------8--7--6--5--|-----------5-------4---||--3---------3-----5--0--|


                                                                 
------------------|------------------------|--------------------|
------------------|------------------------|--------------------|
------------------|-------5-------5--------|--------------------|
0-----------------|--3---------3-----5--0/-|--12----------------|

[ Tab from: http://www.guitartabs.cc/tabs/r/redding_otis/the_dock_of_the_bay_btab.html ]
                                                                           
------------------------|-----------------------|-------------------------|
------------------------|-----------------------|-------------------------|
-------5-------5--------|------7-------7--------|-------5-------5---------|
--3---------3-----4--5--|-----------5-----5--4--|--3---------3-----5--12--|


                        Bridge                                  3x
------------------||---------------------|-------------------------||
------------------||*--------------------|---------------2--3--4--*||
------------------||*-----------5--------|--3----3----3-----------*||
------------------||---3-----------------|-------------------------||


                                                                     
--------------------|--------------------|--------------------------|
--------------------|-----------5--------|--3--3--3--3--3--3--3-----|
-----------5--------|--3-----------------|-----------------------5--|
--3-----------------|--------------------|--------------------------|


                           Outro                   3x
-------------------------||--------------------------||
-------------------------||*------------------------*||
----5--5--5--5--3--2-----||*------------3/5---3/5---*||
----------------------5--||---3------3---------------||


                                
------------------------------||
------------7h-9--9--7h-9--9--||
--7------7--------------------||
------------------------------||

Bella per voi!

Comments