Redd Kross - You Lied Again Chords & Tabs

 

You Lied Again Chords & Tabs

Redd Kross Chords & Tabs

Version: 1 Type: Tab 0 ratings
1 star 2 stars 3 stars 4 stars 5 stars
comments

You Lied Again Tab

   
#----------------------------------PLEASE NOTE--------------------------------#
#This file is the author's own work and represents their interpretation of the#
#song. You may only use this file for private study, scholarship, or research.#
#-----------------------------------------------------------------------------#

Date: Tue, 2 Jun 1998 12:39:59 -0700
From: wnb 
Subject: r/redd_kross/you_lied_again.crd

You Lied Again - Redd Kross [from the album "Show World"]
(Jeffrey McDonald, Steven McDonald, Eddie Kurdziel, Brian Reitzell)
Tabbed by: Tania Taylor [saragon@ozemail.com.au]

Intro:
G - A - B - F
G

Verse 1:
G          B
I remember you
     C
When you were clear
G#          D
Super human youth
             G
Won't last a year
G            B
I heard that bastard sing
      C
And I found the anger
G#               G
The kids want to hear

Pre Chorus:
Bb         D
I'll come around

If you don't
Bb     D
Put me down

Chorus 1:
            G - C - D#
Because you lied (you lied)
              G        C       D#
You said that you'd be nice to me
             G         C   D#
But then you lied again to me
   Bb
To me
C
Just keep your mind

And your thoughts clean

And you're happiness

Won't be obscene

Verse 2:

You sitting there
In your leather chair
Writing a book
About your needs
Guilt inspired poetry
Just like the kind
Some truckers write
When they're on speed

Pre Chorus:

I'll come around
If you don't
Put me down
[ Tab from: http://www.guitartabs.cc/tabs/r/redd_kross/you_lied_again_tab.html ]
Chorus 2:
            G - C - D#
Because you lied (you lied)
              G        C       D#
You said that you'd be nice to me
             G         C   D#
But then you lied again to me
   Bb
To me
D
Just keep your mind

And your thoughts clean

And you're happiness

Won't be obscene

Solo:
                                        B
e -10-9-------------------10-9----------8-------------------------|
B ------12-10-12---------------12-10-12---12-10-12----------------|
G ---------------10-9-9-9-----------------------------------------|
D ----------------------------------------------------------------|
A ----------------------------------------------------------------|
E ----------------------------------------------------------------|

e -18-16-12--------------------------------------------------------|
B ----------14-10------10-12-13-12-10-12---------------------------|
G ----------------9-10---------------------------------------------|
D -----------------------------------------------------------------|
A -----------------------------------------------------------------|
E -----------------------------------------------------------------|
              (missing some solo HERE)           b
e -----------------------------------------------12-10----10-------|
B -----------------------------------------------------13----------|
G -----------------------------------------------------------------|
D -12--------------------------------------------------------------|
A -----------------------------------------------------------------|
E -----------------------------------------------------------------|


Last Chorus:
     A - D - F
You lied (you lied)
              A        D       F
You said that you'd be nice to me
              A        D   F
But then you lied again to me
   C     D
Oh yeah, yeah

             G - A - B - F
Because you lied
             G - A - B - F
Baby you lied
    G - A - B - F
You lied
              G - A - B - F
Oh well, you lied
Comments