Redd Kross - Sick Love Chords & Tabs

 

Sick Love Chords & Tabs

Redd Kross Chords & Tabs

Version: 1 Type: Tab 0 ratings
1 star 2 stars 3 stars 4 stars 5 stars
comments

Sick Love Tab

   
#----------------------------------PLEASE NOTE--------------------------------#
#This file is the author's own work and represents their interpretation of the#
#song. You may only use this file for private study, scholarship, or research.#
#-----------------------------------------------------------------------------#

Date: Tue, 2 Jun 1998 12:36:02 -0700
From: wnb 
Subject: r/redd_kross/sick_love.tab

Sick Love - Redd Kross [from the album "Show World"]
(Jeffrey McDonald, Steven McDonald, Eddie Kurdziel, Brian Reitzell)
Tabbed by: Tania Taylor [saragon@ozemail.com.au]

Intro:

(main riff):
                             b
e -------------------------------------------|
B -------------------------------------------|
G -------------------------------10-9--------|
D -10-9----7-9----(x3)---10-9---------9------|
A ------10-----10-------------10--------10---|
E -------------------------------------------|

Verse 1:
         G
Build me up - Tear me down

Be your clown
                     A
Be a prophet for six months now
                C
They kicked me out
    G
You used to pick on me

Now I'm on the cover of your magazine
          A
Without a reason
         C
What has changed


Chorus:
E
 Don't make me laugh

I won't kiss your ass
  D
I will not do it (I will not)

I wouldn't know how to do it (I will not)
  C
I figured from the start (I figured from the start)
    C#
I'd give you half my heart (I'd give you half my heart)
    C                                A#
But that amounts to twice as much as you

(main riff)

Verse 2:
        G
Kiss the boot - made of suede
[ Tab from: http://www.guitartabs.cc/tabs/r/redd_kross/sick_love_tab.html ]
Kiss the mirror
                           A
Before the image starts to fade
          C
Then it's gone
G
I've known all along

That what you did was wrong
           A          C
You are so evil - and ugly too


Chorus:
E
 Don't make me laugh

I won't kiss your ass
  D
I will not do it (I will not)

I wouldn't know how to do it (I will not)
  C
I figured from the start (I figured from the start)
    C#
I'd give you half my heart (I'd give you half my heart)
    C                                A#
But that amounts to twice as much as you

G (+ lead riff)

Bridge:
G F   Em  C
 American scene shaker
G    F      Em             A
 You are England's newest hit makers (newest hit makers)

    C
But I won't do it
           C#
I said you can't make me do it
      C
Cause I won't kiss it
      C#
And I won't do it

Well, maybe I'll do it
D
You can kiss my face


G
It's a sick sick love
G
It's a sick sick love
G
It's a sick sick love
G
It's a sick sick love
G
It's a sick sick love
G
It's a sick sick love

end riff:

e -------------------------------------------|
B -------------------------------------------|
G -10-10-10-10-10-9--------------------------|
D ------------------10--10-10-10-10-10-9-----|
A ---------------------------------------10--|
E -------------------------------------------|

e -------------------------------------------|
B -------------------------------------------|
G -10-10-10-10-10-9--------------------------|
D ------------------10--10-9----7-9----------|
A ---------------------------10-----10-------|
E -------------------------------------------|
Comments