Redd Kross - Girl God Chords & Tabs

 

Girl God Chords & Tabs

Redd Kross Chords & Tabs

Version: 1 Type: Tab 0 ratings
1 star 2 stars 3 stars 4 stars 5 stars
comments

Girl God Tab

   
#----------------------------------PLEASE NOTE--------------------------------#
#This file is the author's own work and represents their interpretation of the#
#song. You may only use this file for private study, scholarship, or research.#
#-----------------------------------------------------------------------------#

Date: Tue, 2 Jun 1998 12:22:56 -0700
From: wnb 
Subject: r/redd_kross/girl_god.tab

Girl God - Redd Kross [from the album "Show World"]
(Jeffrey McDonald)
Tabbed by: Tania Taylor [saragon@ozemail.com.au]

[I tabbed both guitars. Guitar 1 plays the chords
through the song and Guitar 2 is the electric one
that plays the riffs and solo.]


Intro:

   EADGBe
G- 320033

Verse 1:

C       Em             Am
Misunderstood, you are very good
    F                           C
The crown you deserve would be yours
   Em            G
If only you were half as smart
C              Em
Those who criticize
      Am
Often idolize
    F                          C
The bitterness comes from the fear
     Em                G
That once again you'll leave them far behind


Chorus1:

(guitar 2)
e -----------------------------------------------------------------------------|
B -----------------------------------------------------------------------------|
G -----------------------------------------------------------------------------|
D -10p9-10p9-10p9-7-9-----------------------------------------------7-7-9-10---|
A --------------------------7-9-7-5-7-5-----------7-9-7-5-7-5------------------|
E --------------------3-7-0-------------7-5-3-7-0-------------3-7-0----------3-|

G     Bm       Em
 Girl God Girl God
G     Bm       Em
 Girl God Girl God
G     Bm       Em
 Girl God Girl God
            A
Well you're always broken from
                  C     G
The crack of your smile

Verse 2:

(guitar 2)
e --------------------|
B -----8--------------|
G -6-7---7-6-7-6-7----|
D -----------------5--|
A --------------------|
E --------------------|
[ Tab from: http://www.guitartabs.cc/tabs/r/redd_kross/girl_god_tab.html ]
Only gods behind the sheet
Plastic-covered thrones
Bitching like some dirty old queen
Whose mother doesn't want anymore
Love is someone
Someone nice
Strong and original
Maybe that person is you
We want a different point of view

Chorus1:

(guitar 2)
e ------------------------|
B ------------------------|
G ------------------------|
D ------------------------| (x2)
A -------7-9-7-5-7-5------|
E -3-7-0-------------7-5--|

(guitar 2)
e ------------------------------------------------------------------------|
B ---------------------------------------------------------------------8--|
G --------------9-12-9-12-7-9-7-9-7-11-7-11-----7---7---7-9-7-9-7-11-7----|
D -------7-9-10-----------------------------7-9---9---9-------------------|
A ------------------------------------------------------------------------|
E -3-7-0------------------------------------------------------------------|


G     Bm       Em
 Girl God Girl God
G     Bm       Em
 Girl God Girl God
G     Bm       Em
 Girl God Girl God
            A
Well you're always broken from
                  C     G
The crack of your smile

Bridge:

(guitar 2)
e ----------------------------------------|
B ----------------------------------------|
G -------------------------------------9--|
D -----------------------------------9----|
A -------------------------------5-7------|
E -3-2-3-5-7-5-3-2-0-3-2-3-5-7-5----------|

The prophets of this generation
Always lacked imagination
Well, the prophets of this generation
Always lacked imagination, imagination
Well, the victims of this genertation
Always lacked imaination
Well, the prophets of this generation
Always lacked imagination, imagination well...


Chorus 3:

(guitar 2)
e ------------------------|
B ------------------------|
G ------------------------|
D ------------------------| (x2)
A -------7-9-7-5-7-5------|
E -3-7-0-------------7-5--|

(guitar 2)
e ----------------------------|
B ----------------------------|
G -------------------7-8------|
D ---------------6-9----------|
A -------7-7-7-7---------3----|
E -3-7-0-------------------3--|

Girl God Girl God
Girl God Girl God
Girl God Girl God
Well you're always
Yes you're always
You're always broken from
The crack of your smile
Comments