Red Warszawa - Sla Ihjel Chords & Tabs

 

Sla Ihjel Chords & Tabs

Red Warszawa Chords & Tabs

Version: 1 Type: Tab 0 ratings
1 star 2 stars 3 stars 4 stars 5 stars
comments

Sla Ihjel Tab

   
SLÅ IHJEL
rif A (start og omkvæd)
------------------------------------------------------------------------
------------------------------------------------------------------------
------------------------------------------------------------------------
-9---9---9---9---7---7---7---7---12---12---12---12---12---12---12---12--
-7---7---7---7---5---5---5---5---10---10---10---10----9----9----9----9--
---0---0---0---0---0---0---0---0----0----0----0-----0---0----0----0-----
(spilles 3 gange, 4-gang laves en krølle på rytmen)
rif B (vers)
------------------------------------------------------------------------
------------------------------------------------------------------------
------------------------------------------------------------------------
------------------------------------------------------------------------
------------------------------------------------------------------------
-0-0-1-0-0-2-0-0-3-0-0-5-0-0-2-3----------------------------------------
(dette er hovedformen, men der varieres med hvad man nu finder på mens der synges,
eventuelt kan man bare lade den ringe i E-mol)

rif c (bro til omkvæd)
----------------------------------------------------------------
----------------------------------------------------------------
----------------------------------------------------------------
----------------------------------------5-5--6-6-6---7-7--8-8---
-5-5\4---------5-5\4-------5-5\4----3-3--4-4-4---5-5--6-6-------
-3-3\2---------3-3\2-------3-3\2--------------------------------
Akorderne til første halvdel af soloen er (e-a-g-c-d)
Anden halvdel af soloen er bare rif B
--------------------------------------------------------------------------------
[ Tab from: http://www.guitartabs.cc/tabs/r/red_warszawa/sla_ihjel_tab.html ]
Comments