Red River - Hey Fuckhead Chords & Tabs

 

Hey Fuckhead Chords & Tabs

Red River Chords & Tabs

Version: 1 Type: Tab 0 ratings
1 star 2 stars 3 stars 4 stars 5 stars
comments

Hey Fuckhead Tab

   
ReD RiVeR
Return of the Carpet Cleaning Sea Creatures

Hey F**khead

Tuning (low to high): C-G-C-F-A-D

Intro:  

------------------------------]
------------------------------]
------------------------------]
0-0-1---4---1---0-0-1---4---1-]                
0-0-1---4---1---0-0-1---4---1-]
0-0-1---4---1---0-0-1---4---1-]

--------------------------------]
--------------------------------]
--------------------------------]
0-0-0-0-0-15-15-15-15-14-14-14-17---15---]
0-0-0-0-0-15-15-15-15-14-14-14-17---15---]
0-0-0-0-0-15-15-15-15-14-14-14-17---15---]

----------------]
----------------]
----------------]
0---0-0-15-15-15-15-]
0---0-0-15-15-15-15-]
0---0-0-15-15-15-15-]

---------------]
---------------]
---------------]
0-0-1---4---1--]                
0-0-1---4---1--]
0-0-1---4---1--]

--------------------------------]
--------------------------------]
--------------------------------]
0-0-0-0-0-15-15-15-15-14-14-14-17---15---]
0-0-0-0-0-15-15-15-15-14-14-14-17---15---]
0-0-0-0-0-15-15-15-15-14-14-14-17---15---]

----------------]
----------------]
----------------]
0---0-0-15-15-15-15-]
0---0-0-15-15-15-15-]
0---0-0-15-15-15-15-]

Pre-Verse #1:  (faster tempo)

--------------------------------]
--------------------------------]
--------------------------------]
7---5---6---3---0---------------]
7---5---6---3---0---------------]  3 times
7---5---6---3---0---------------]
[ Tab from: http://www.guitartabs.cc/tabs/r/red_river/hey_fuckhead_tab.html ]
----------------------------------]
----------------------------------]
----------------------------------]
7---5---6---3---0---------------0-]
7---5---6---3---0---------------0-] < stop here for pre-verse
7---5---6---3---0---------------0-]

Pre-Verse #2- Bass Solo Only

Verse:  Various Neck Tapping

Pre-Chorus:

--------------------------------]
--------------------------------]
--------------------------------]
2-----3-----0-------------------]
2-----3-----0-------------------]  4 times
2-----3-----0-------------------]

--------------------------------]
--------------------------------]
--------------------------------]
7---5---6---3---0---------------]
7---5---6---3---0---------------]  8 times
7---5---6---3---0---------------]

Chorus:  same as intro

Pre Verse #1

Pre-Verse #2

Verse

Chorus

Outro:

----------------]
----------------]
----------------]
0-0-1---4---1---]   5 times             
0-0-1---4---1---]
0-0-1---4---1---]

--------------------------------]
--------------------------------]
--------------------------------]
5-6---------1-0-----------------] \
5-6---------1-0-----------------]  \
5-6---------1-0-----------------]   \
                                     \  
                                      > seven times
--------------------------------]    /
--------------------------------]   /
--------------------------------]  /
5-6---------1-0-----------------] /
5-6---------1-0-----------------]
5-6---------1-0-----------------]
              ^ let ring

------------------------------]
------------------------------]
------------------------------]
0-0-1---4---1---0-0-1---4---1-]     three times           
0-0-1---4---1---0-0-1---4---1-]
0-0-1---4---1---0-0-1---4---1-]

------------------]
------------------]
------------------]
0-0-1---4---1---0-]
0-0-1---4---1---0-]
0-0-1---4---1---0-]
                ^ end on this chord

~35 Lives
Zegro422Sowl@yahoo.com
Comments