Red Rider - Human Race Chords & Tabs

 

Human Race Chords & Tabs

Red Rider Chords & Tabs

Version: 1 Type: Tab 0 ratings
1 star 2 stars 3 stars 4 stars 5 stars
comments

Human Race Tab

   
-------------------------------------------------------------------------------
			     HUMAN RACE - Red Rider (With Tom Cochrane)
-------------------------------------------------------------------------------
Tabbed by: Billy (AKA Floydian)
Email: thepinkfloydian@gmail.com



Felt this was a good song and I was surprised to find it on no sites.

ONLY ultimate-guitar.com may display this tab unless you receive permission
from me by emailing or msn-ing me at the email address above

Tuning: Standard (EADGBE)

Opening:
ŻŻŻŻŻŻŻŻ

Several keyboard bars, guitar enters with:

e|--10b11r10------------------------------------------------|
B|-------------11---9---------------------------------------|
G|----------------------------------------------------------|
D|----------------------------------------------------------|
A|----------------------------------------------------------|
E|----------------------------------------------------------|

e|--10b11r10------------------------------------------------|
B|-------------11-/-13---\\--8---8~~~~~~~~~-----------------|
G|----------------------------------------------------------|
D|----------------------------------------------------------|
A|----------------------------------------------------------|
E|----------------------------------------------------------|

e|--(11)r10-\-8---------------------------------------------|
B|---------------11-/-13---------------------///---20-------|
G|----------------------------------------------------------|
D|----------------------------------------------------------|
A|----------------------------------------------------------|
E|----------------------------------------------------------|

e|----------------------------------------------------------|
B|--12b13r12--9----12-b-13----------r--\\--8----8-----------|
G|----------------------------------------------------------|
D|----------------------------------------------------------|
A|----------------------------------------------------------|
E|----------------------------------------------------------|
[ Tab from: http://www.guitartabs.cc/tabs/r/red_rider/human_race_tab.html ]
e|--19b20-r19-----15----------------------------------------|
B|------------------------18---------------18--//-20--------|
G|----------------------------17-----------17--//-19--------|
D|----------------------------------------------------------|
A|----------------------------------------------------------|
E|----------------------------------------------------------|

e|--19b20-r19-----15----19b20-------------------------------|
B|-----------------------------------------12b13r12b13------|
G|----------------------------------------------------------|
D|----------------------------------------------------------|
A|----------------------------------------------------------|
E|----------------------------------------------------------|

e|-----------------------------------------------|
B|-----------------------------------------------|
G|-----------------------------------------------|
D|-----------------------------------------------|
A|---8---8------6---6------5---5------3---3------|
E|-----------------------------------------------|

e|-----------------------------------------------|
B|-----------------------------------------------|
G|-----------------------------------------------|
D|-----------------------------------------------|
A|---5---6------5---5------3---3-----------------|
E|------------------------------------3-/-6-/-8--|

Main riff:
ŻŻŻŻŻŻŻŻŻŻ
                                            | Bend this G slightly
e|--(11)--------------------------------------------------------------------|
B|---13--------------------------15----------------16---------------15------|
G|---12-------------------12----------------12---------------12-------------|
D|---13---------------------------------------------------------------------|
A|--------------------------------------------------------------------------|
E|--------------------------------------------------------------------------|

The chorus' are then just the last two bars of the opening with distortion.

| /  slide up
| \  slide down
| h  hammer-on
| p  pull-off
| ~  vibrato
| +  harmonic
| x  Mute note
===============================================================================

If you want this tab on your site, email or msn me at the email given above.
Comments