Red Lit - Cambridge Crush Chords & Tabs

 

Cambridge Crush Chords & Tabs

Red Lit Chords & Tabs

Version: 1 Type: Bass Tab 0 ratings
1 star 2 stars 3 stars 4 stars 5 stars
comments

Cambridge Crush Bass Tab

          CAMBRIDGE CRUSH
          by RED LIT
[ Tab from: http://www.guitartabs.cc/tabs/r/red_lit/cambridge_crush_btab.html ]
          ----------------------------|-------------------------
          ----------------------------|-------------------------
          ----------------------------|-------------------------
          ---0-0-3-00-0-3---0-0-3-00--|-------------------------          -----7-9--7-9-7-9-7--7-9--7-9-7-9-7--7-9--7-9-7-9-7--
          ---------------------------------------------------0-
          ----------------------------------0------------------
          ---0---------------0---------------------------------          --9-11--9-11-9-11-9--7-9--7-9-7-9-7------------------
          -----------------------------------------------------
          -----------------------------------------------------
          -------------------0---------------0-----------------
Comments