Red Hot Chilli Peppers - Californication Chords & Tabs

 

Californication Chords & Tabs

Red Hot Chilli Peppers Chords & Tabs

Version: 1 Type: Tab 3 ratings
1 star 2 stars 3 stars 4 stars 5 stars
comments

Californication Tab

   
Red Hot Chilli Peppers
Californication

Legend: Pull off to= p
        Bend up and down= ~
        Slide= /
        Hammer= h

        E=-----|
        B=-----|
        G=-----|
        D=-----|
        A=-----|
        E=-----|

-----------------------------------------------------------|
---------0--2----------------------------------------------|
------------------------------------------0--2-------------|
------2------------2--0--2h-------------------------3--0---| x6
---0-------------------------3---------3-------------------|
------------------------------------1----------------------|

------------------------------------|
------------------------------------|
---------0-------------------0--2---|
------2-----------0-----------------|
---3-----------2----------3---------|
------------3----------1------------|

-----------------------------------------------------------|
---------0--2----------------------------------------------|
------------------------------------------0--2-------------|
------2------------2--0--2h-------------------------3--0---| x4
---0-------------------------3---------3-------------------|
------------------------------------1----------------------|

------------------------------------|
------------------------------------|
---------0-------------------0--2---|
------2-----------0-----------------|
---3-----------2----------3---------|
------------3----------1------------|

Chorus

--------------------------------1--1--1--1--1--1--1--1--1---|
---1--1--1--1--1--1--1--1--1----1--1--1--1--1--1--1--1--1---|
---2--2--2--2--2--2--2--2--2----2--2--2--2--2--2--2--2--2---|
---2--2--2--2--2--2--2--2--2----3--3--3--3--3--3--3--3--3---| x6
------------------------------------------------------------|
------------------------------------------------------------|

Strumming pattern for chorus: down down up down down down up down down

dream of californication....
-----------3--3----1--1--1--1------------3--3----1---|
---1--1------------3--3--3--3----1--1------------3---|
-------------------2--2--2--2--------------------2---|
---2--2--------------------------2--2----------------|
---3--3----2--2------------------3--3----2--2--------|
-----------3--3--------------------------3--3--------|

----------------------------------------------------------|
--------0--2----------------------------------------------|
-----------------------------------------0--2-------------|
-----2------------2--0--2h-------------------------3--0---| x4
--0-------------------------3---------3-------------------|
-----------------------------------1----------------------|

------------------------------------|
------------------------------------|
---------0-------------------0--2---|
------2-----------0-----------------|
---3-----------2----------3---------|
------------3----------1------------|

-----------------------------------------------------------|
--------0--2-----------------------------------------------|
------------------------------------------0--2-------------|
-----2------------2--0--2h--------------------------3--0---|
--0-------------------------3----------3-------------------|
------------------------------------1----------------------|

------------------------------------|
------------------------------------|
---------0-------------------0--2---|
------2-----------0-----------------|
---3-----------2----------3---------|
------------3----------1------------|

Chorus

--------------------------------1--1--1--1--1--1--1--1--1---|
---1--1--1--1--1--1--1--1--1----1--1--1--1--1--1--1--1--1---|
---2--2--2--2--2--2--2--2--2----2--2--2--2--2--2--2--2--2---|
---2--2--2--2--2--2--2--2--2----3--3--3--3--3--3--3--3--3---| x6
------------------------------------------------------------|
------------------------------------------------------------|
[ Tab from: http://www.guitartabs.cc/tabs/r/red_hot_chilli_peppers/californication_tab.html ]
dream of californication....
-----------3--3----1--1--1--1------------3--3----1--1--1--1---|
---1--1------------3--3--3--3----1--1------------3--3--3--3---|
-------------------2--2--2--2--------------------2--2--2--2---|
---2--2--------------------------2--2-------------------------| x3
---3--3----2--2------------------3--3----2--2-----------------|
-----------3--3--------------------------3--3-----------------|

-----------3--3----1--1--1--1------------3--3----1---|
---1--1------------3--3--3--3----1--1------------3---|
-------------------2--2--2--2--------------------2---|
---2--2--------------------------2--2----------------|
---3--3----2--2------------------3--3----2--2--------|
-----------3--3--------------------------3--3--------|

Solo

-------9----------------9------------------------------------|
---10---------------10---------------------------------------|
----------13--11-----------13~----11--11--11--11p9-----------|
----------------------------------------------------11--11---|
-------------------------------------------------------------|
-------------------------------------------------------------|

-------------------------------------9--12--14---|
---------------------------------10--------------|
--------------------9----------------------------|
---11--11--9--11-------11--10--------------------|
-------------------------------------------------|
-------------------------------------------------|

------10--12--16-14~----17--16--14--12--14--12------12-----------|
---9--------------------------------------------14------14--14---|
-----------------------------------------------------------------|
-----------------------------------------------------------------|
-----------------------------------------------------------------|
-----------------------------------------------------------------|

-------------12------14--12------12-------------12---------------|
---14----14------14----------14------14--12---------15--14-------|
---------------------------------------------14-------------14---|
-----------------------------------------------------------------|
-----------------------------------------------------------------|
-----------------------------------------------------------------|

-----------------------------------------------------------|
---------0--2----------------------------------------------|
------------------------------------------0--2-------------|
------2------------2--0--2h-------------------------3--0---| x4
---0-------------------------3---------3-------------------|
------------------------------------1----------------------|

------------------------------------|
------------------------------------|
---------0-------------------0--2---|
------2-----------0-----------------|
---3-----------2----------3---------|
------------3----------1------------|

--------------------------------1--1--1--1--1--1--1--1--1---|
---1--1--1--1--1--1--1--1--1----1--1--1--1--1--1--1--1--1---|
---2--2--2--2--2--2--2--2--2----2--2--2--2--2--2--2--2--2---|
---2--2--2--2--2--2--2--2--2----3--3--3--3--3--3--3--3--3---| x6
------------------------------------------------------------|
------------------------------------------------------------|

dream of californication....
-----------3--3----1--1--1--1------------3--3----1--1--1--1---|
---1--1------------3--3--3--3----1--1------------3--3--3--3---|
-------------------2--2--2--2--------------------2--2--2--2---|
---2--2--------------------------2--2-------------------------| x3
---3--3----2--2------------------3--3----2--2-----------------|
-----------3--3--------------------------3--3-----------------|

-----------3--3----1--1--1--1------------3--3----1---|
---1--1------------3--3--3--3----1--1------------3---|
-------------------2--2--2--2--------------------2---|
---2--2--------------------------2--2----------------|
---3--3----2--2------------------3--3----2--2--------|
-----------3--3--------------------------3--3--------|
Comments