Red Hot Chili Peppers - Zephyr Song Chords & Tabs

 

Zephyr Song Chords & Tabs

Red Hot Chili Peppers Chords & Tabs

Version: 6 Type: Tab 8 ratings
1 star 2 stars 3 stars 4 stars 5 stars
comments

Zephyr Song Tab

   
Zephyr Song - Red Hot Chili Peppers (Spanish - English)
===================================

Tema muy fácil de tocar, y rápido de perfeccionar. Recomendable para principiantes. 
Esta es una versión personal, la más fácil que he probado.
Puede haber partes no reflejadas en el tab 

- 

Very easy playing song, with fast improving. Suggested for beginners. 
This is a personal version, the easiest i could transcribe.
Perhaps not all song parts showed here

El formato del "tab" es el siguiente - the tab format is as follows:

Parte del tema - theme part
---------------------------
     ACORDE - CHORD
e|-----------------------------------------------------------------------------------------------1ª
B|-----------------------------------------------------------------------------------------------2ª
G|-----------------------------------------------------------------------------------------------3ª
D|----TABLATURA---TAB----------------------------------------------------------------------------4ª
A|-----------------------------------------------------------------------------------------------5ª
E|-----------------------------------------------------------------------------------------------6ª
     LETRA - LYRICS


Ahí vamos - here we go:

Intro
-----

e|--------3----------1--------------------------------0-----------------------------0------------1ª
B|-----1----------0-----------0--------1----------1-------0--3-------0-------------1-------------2ª
G|--2----------0-----------0--------2----------2--------0-----------0-------------2--------------3ª
D|-----------------------2--------3--------------------------------2-------------3---------------4ª
A|-----------------------------------------------------------------------------------------------5ª
E|-----------------------------------------------------------------------------------------------6ª

[ Tab from: http://www.guitartabs.cc/tabs/r/red_hot_chili_peppers/zephyr_song_tab_ver_6.html ]
Verse X2
-----
    La m                Sol                   Mi m                Fa    
    A m                 G                     E m                 F
e|------0------3-1-0-------------1-0------------------------------------0h1----------------------1ª
B|----1--------------------0-3--------3-1--------0-----3-1-0---------1-------3-1-0---------------2ª
G|--2-------2-----------0------0---------------0--------------------2-----------------0h2--------3ª
D|--------------------------------------------2------2------------3------------------------------4ª
A|-----------------------------------------------------------------------------------------------5ª
E|-----------------------------------------------------------------------------------------------6ª


    La m                Sol                    Mi m                  Fa
    A m                 G                      E m                   F
e|------0-----3-5-3--------------1-0-------------------------------------------------------------1ª
B|----1--------------------0-3--------3-1---------0-----3-1-0----------1---0-1-------------------2ª
G|--2-------2-----------0------0----------------0---------------------2--------------------------3ª
D|---------------------------------------------2------2--------------3-----3---------------------4ª
A|-----------------------------------------------------------------------------------------------5ª
E|-----------------------------------------------------------------------------------------------6ª

Chorus -improve it yourself to the infinite&beyond-
------

      Re                         Sol         La      	
      D                          G           A
e|-------2---2---3---2---2-------3----3--------2---0--------------------------------------------1ª
B|----3----3---3---3---3---------------------2----2---------------------------------------------2ª
G|--------------------------------0----0--------------------------------------------------------3ª
D|----------------------------------------------------------------------------------------------4ª
A|----------------------------------------------------------------------------------------------5ª
E|----------------------------------------------------------------------------------------------6ª

Solo X2
----
   La m            Sol                      Mi m          Fa  
   A m             G                        E m           F   
e|-12--10--12-12---12--10-12----------------10--8--10-10--10-8-10--12------------------------1ª
B|--------------------------12b13b12--10-------------------------------12b13b12--10----------2ª
G|-------------------------------------------------------------------------------------------3ª
D|-------------------------------------------------------------------------------------------4ª
A|-------------------------------------------------------------------------------------------5ª
E|-------------------------------------------------------------------------------------------6ª


---------------------------------------------------------------------------------------------
Espero que ayude - I hope it helps you.
Por favor, mostrar créditos al copiarlo - Please, give me credit when published elsewhere.


Tab by Ignacio Vicente Dorado - ivdorado.tk
Comments