Red Hot Chili Peppers - Zephyr Song Chords & Tabs

 

Zephyr Song Chords & Tabs

Red Hot Chili Peppers Chords & Tabs

Version: 1 Type: Bass Tab 0 ratings
1 star 2 stars 3 stars 4 stars 5 stars
comments

Zephyr Song Bass Tab

Band: Red Hot Chili Peppers
Song: The Zephyr Song

Tuning: 4-String Standard (E A D G - low to high)
Time:  4/4

key: G minor on the verses
     G major on the chorus

Tabbed By Aaron Reeves
Verse and Bridge editted by Chris Valente

Key:

(x) - hold x until the *
/ - slide up (from low to high)
\ - slide down (from high to low)


117BPM (approx.)


Intro: 

Rest 1st four measures.

G|----------------|----------------|----------------|----------------|
D|7---------------|5---------------|2---------------|3---------------|
A|----------------|----------------|----------------|----------------|
E|----------------|----------------|----------------|----------------|


Verse: 

G|----------------|----------------|------4--4------|-----------------|
D|7--7-9--9-10----|-5--5-7--7-5----|-2--2------2----|-3-------3-------|
A|----------------|----------------|----------------|----3--3---------|
E|----------------|----------------|----------------|-----------------|

G|----------------|----------------|------4--4------|-----------------|
D|7--7-9--9-10----|-5--5-7--7-5----|-2--2------2----|-3-------3-5-----|
A|----------------|----------------|----------------|----3--3---------|
E|----------------|----------------|----------------|-----------------|

G|----------------|----------------|------4--4------|-----------------|
D|7--7-9--9-7-----|-5--5-7--7-5----|-2--2------2----|-3-------3-------|
A|----------------|----------------|----------------|----3--3---------|
E|----------------|----------------|----------------|-----------------|

G|----------------|----------------|------4--4------|----4-5-----4-5--|
D|7--7-9--9-7-----|-5--5-7--7-5----|-2--2------2----|-3-------3-------|
A|----------------|----------------|----------------|-----------------|
E|----------------|----------------|----------------|-----------------|

Rest a measure, then go to the chorus.

Chorus:

Crazy tricky rythym in here.
[ Tab from: http://www.guitartabs.cc/tabs/r/red_hot_chili_peppers/zephyr_song_btab.html ]
G|---11---14-------11-|--14--------11------|---16------14----------|------14---14-16-14---|
D|12------------12----|---------12----12---|12------12------12/14--|14-16-----------------|
A|--------------------|--------------------|-----------------------|----------------------|
E|--------------------|--------------------|-----------------------|----------------------|

G|---11---14-------11-|--14--------11------|---16------14----------|------14---16----14---|
D|12------------12----|---------12----12---|12------12------12/14--|14-16---------14------|
A|--------------------|--------------------|-----------------------|----------------------|
E|--------------------|--------------------|-----------------------|----------------------|

Solo:

G|-21-2121-21--21-|-19-1919-19--19-|-16-1616-16--16-|-17-1717-17--17-------|
D|-19-1919-19--19-|-17-1717-17--17-|-14-1414-14--14-|-15-1515-15--15-------|
A|----------------|----------------|----------------|----------------------|
E|----------------|----------------|----------------|----------------------|

G|-21-2121-21--21-|-19-1919-19--19-|-16-1616-16--16-|-17-1717-17--17-------|
D|-19-1919-19--19-|-17-1717-17--17-|-14-1414-14--14-|-15-1515-15--15-------|
A|----------------|----------------|----------------|----------------------|
E|----------------|----------------|----------------|----------------------|

Interlude:

G|----------------|----------------|----------------|--------------------|
D|----------------|----------------|----------------|--------------------|
A|----------------|----------------|-----2--2-------|--------------------|
E|--5-77--8-5-----|3--3-5--5-3-----|0--0------0-----|1--1-/13-13-13-13---|

G|----------------|----------------|----------------|--------------|
D|----------------|----------------|----------------|--------------|
A|----------------|----------------|-----2--2-------|--------------|
E|--5-77--8-------|3--3-5--5-3-----|0--0------0-----|1--1-11-1-1---|

then just repeat the chorus through the outro! have fun!

Comments