Red Hot Chili Peppers - Walkabout Chords & Tabs

 

Walkabout Chords & Tabs

Red Hot Chili Peppers Chords & Tabs

Version: 2 Type: Bass Tab 0 ratings
1 star 2 stars 3 stars 4 stars 5 stars
comments

Walkabout Bass Tab

-------------------------------------------------------------------------------
			 Walkabout - Red Hot Chili Peppers
-------------------------------------------------------------------------------

Tabbed By : CALLEY 
 
Tuning:Standard

G|--7--9--7------------------------9--7------------------------9--7----------|
D|-9---------5--7b8r7--5-----------------5--7b8r7--5--0--------------5--7b8r7|
A|------------------------0--------------------------------------------------|
E|---------------------------------------------------------------------------|

G|----------------------------------------------------------------------9--7-|
D|--5------------------------------------------5--7--7b8r7--5--9-------------|
A|-----0--------------5--5b6r5--3--7--------7--------------------------------|
E|--------------5--8---------------------------------------------------------|

G|---------------------------------------------------------------------------|
D|-5--7b8r7--0---------------------------------------------------------------|
A|----------------3----0-----------------------------------------------------|
E|---------------------------------------------------------------------------|

[ Tab from: http://www.guitartabs.cc/tabs/r/red_hot_chili_peppers/walkabout_btab_ver_2.html ]
RIFF 1   (x10)                                                 
G|-0-7-8-9-------------------------------------------------------------------|
D|----------7--5--------0-7-6-5----------------------------------------------|
A|-------------------------------7--5-----------4-5-7-0----------------------|
E|---------------------------------------------------------------------------|

RIFF 2
G|----------5---------------------5------------------------------------------|
D|-7--5------------------7--5------------------------------------------------|
A|-------7-----6-5-------------7-----6-5--8-7--------------------------------|
E|---------------------------------------------------------------------------|

G:---------------|----------|----------------|
D:Riff-1-(x8)----|Riff-2----|--Riff-1--(x4)--|
A:---------------|----------|----------------|
E:---------------|----------|----------------|


G|-------------------------------------11-11-----------------11--------------|
D|---------------------------------------------------------------------------|
A|----9-----7-7-------9-----7-7-----9-----------7-7-------9--------7-7-------|
E|-9-----7-------9-9-----7-------9-----------7-------9-9--------7------------|


G:---------------|
D:Riff-1-(x8)----|
A:---------------|
E:---------------|
===============================================================================
Comments