Red Hot Chili Peppers - Venice Queen Chords & Tabs

 

Venice Queen Chords & Tabs

Red Hot Chili Peppers Chords & Tabs

Version: 3 Type: Tab 2 ratings
1 star 2 stars 3 stars 4 stars 5 stars
comments

Venice Queen Tab

VENICE QUEEN
RED HOT CHILI PEPPERS
BY THE WAY
tabbed by ryan

intro,verse   3 times
E|------------------------------------|
B|-----12-----12-----12-----12--------|
G|---9----9--------9----9------12-11--|
D|-9--------9----9--------9-----------|
A|------------------------------------|
E|------------------------------------|

1 time
|---------------------------------------|
B|-----12-----12-----12-----12-----12---|
G|---9------9------9------9------9------|
D|-9------9------9------9------9--------|
A|--------------------------------------|
E|--------------------------------------|

1 time
E|-------2-2-----2-2------------3-3-----3-3-------------|
B|-3-3-3-3-3-3-3-3-3-3-3--0-0-0-0-0-0-0-0-0-0-0---------|
G|-0-0-0-0-0-0-0-0-0-0-0--0-0-0-0-0-0-0-0-0-0-0---------|
D|-0-0-0-0-0-0-0-0-0-0-0--2-2-2-2-2-2-2-2-2-2-2---------|
A|-3-3-3-3-3-3-3-3-3-3-3--0-0-0-0-0-0-0-0-0-0-0---------|
E|------------------------------------------------------|

interlude guitar 1  1 time
E|-0-0-0-0-0000-------0-0-0-0-0000-------000000--2222222-------|
B|-0-0-0-0-0000--3-3--0-0-0-0-0000--3-3--000000--3333333-------|
G|-0-0-0-0-0000--5-5--0-0-0-0-0000--5-5--222222--2222222-------|
D|-2-2-2-2-2222--4-4--2-2-2-2-2222--4-4--222222--0000000-------|
A|-2-2-2-2-2222-------2-2-2-2-2222-------000000--0000000-------|
E|-0-0-0-0-0000-------0-0-0-0-0000-----------------------------|

guitar 2   3 times
E|-------7---------10-10------|
B|-----8---8-----8------------|
G|---7------------------------|
D|-9----------10--------------|
A|----------------------------|
E|----------------------------|
[ Tab from: http://www.guitartabs.cc/tabs/r/red_hot_chili_peppers/venice_queen_tab_ver_3.html ]
continued guitar 2  1 time (1st)        1 time (2nd)                                    1 time (3rd)                           1 time (4th)
E|-7-----7-----7------5-----5-----|-12-------12-------12--------10-------10--------|-7-----7-----7------8-------8--------|-12-------12-------12--------14-------14--------|
B|---8-----8-----8------7-----7---|----12-------12-------12--------10-------10-----|---8-----8-----8------10------10-----|----12-------12-------12--------15-------15-----|
G|-----9-----9-----9------7-----7-|-------12-------12-------12--------11-------11--|-----9-----9-----9-------11------11--|-------12-------12-------12--------14-------14--|
D|--------------------------------|------------------------------------------------|-------------------------------------|------------------------------------------------|
A|--------------------------------|------------------------------------------------|-------------------------------------|------------------------------------------------|
E|--------------------------------|------------------------------------------------|-------------------------------------|------------------------------------------------|

guitar 3
E|-----------------33333333333333--00000000000000--00000000000000--|
B|-22222222222222--33333333333333--11111111111111--11111111111111--|
G|-22222222222222--22222222222222--22222222222222--22222222222222--|
D|-22222222222222--00000000000000--33333333333333--00000000000000--|
A|-00000000000000--00000000000000--33333333333333--00000000000000--|
E|-----------------------------------------------------------------|

E|-----------------33333333333333--00000000000000-------------------|
B|-22222222222222--33333333333333--11111111111111--00000000000000---|
G|-22222222222222--22222222222222--22222222222222--00000000000000---|
D|-22222222222222--00000000000000--33333333333333--00000000000000---|
A|-00000000000000--00000000000000--33333333333333--22222222222222---|
E|------------------------------------------------------------------|

guitar 4
E|--------------------------------------------------------------0-----0-----0-----0-----0--------------------------------------|
B|-2-----2-----2-----2-----2------3-----3-----3-----3-----3-------1-----1-----1-----1-----1-----3-----3-----3-----3-----3------|
G|---2-----2-----2-----2-----2------2-----2-----2-----2-----2-------2-----2-----2-----2-----2-----2-----2-----2-----2-----2----|
D|-----2-----2-----2-----2-----2------0-----0-----0-----0-----0-------------------------------------0-----0-----0-----0-----0--|
A|-----------------------------------------------------------------------------------------------------------------------------|
E|-----------------------------------------------------------------------------------------------------------------------------|

E|-----------------33333333333333--00000000000000--00000000000000--|
B|-22222222222222--33333333333333--11111111111111--11111111111111--|
G|-22222222222222--22222222222222--22222222222222--22222222222222--|
D|-22222222222222--00000000000000--33333333333333--00000000000000--|
A|-00000000000000--00000000000000--33333333333333--00000000000000--|
E|-----------------------------------------------------------------|

E|-----------------33333333333333--00000000000000--00000000000000--|
B|-22222222222222--33333333333333--11111111111111--11111111111111--|
G|-22222222222222--22222222222222--22222222222222--22222222222222--|
D|-22222222222222--00000000000000--33333333333333--00000000000000--|
A|-00000000000000--00000000000000--33333333333333--00000000000000--|
E|-----------------------------------------------------------------|

end on
E|-0--|
B|-1--|
G|-2--|
D|-0--|
A|-0--|
E|----|

Comments