Red Hot Chili Peppers - Venice Queen Chords & Tabs

 

Venice Queen Chords & Tabs

Red Hot Chili Peppers Chords & Tabs

Version: 4 Type: Bass Tab 0 ratings
1 star 2 stars 3 stars 4 stars 5 stars
comments

Venice Queen Bass Tab

----------------------------------------------------------------------------
		    Venice Queen- Red Hot Chili Peppers
----------------------------------------------------------------------------

Tabbed By : Dan Guthrie
e-mail: philliphanatic@yahoo.com

Tuning:Standard (EADG)

(slowly crescendo until the lyrics begin)

G|---------------------------|
D|---------------------------|
A|-7777777777777777--5--6----|
E|---------------------------|

G|---------------------------------|    G|---------|  (last note before
D|---------------------------------|    D|---------|  the acoustic part)
A|---------------------------------|    A|---------|
E|-88888888888888--333333333333333-|    E|--0------|

repeat those two lines until the acoustic guitar part
[ Tab from: http://www.guitartabs.cc/tabs/r/red_hot_chili_peppers/venice_queen_btab_ver_4.html ]
rest a few bars when the acoustic guitar comes in, then play this part 3X
G|-------------------------------------------------------------------------|
D|----------------------------------------------------5/12-12-12-12-12-12--|
A|--7-77---------7-77--------7-77------------------------------------------|
E|--------8-7-5-------8-7-5-------8-7-5--55555555555-----------------------|

Then play this part once
G|-------------------------------------------------------------------------|
D|-------------------------------------------------------------------------|
A|--7-77---------7-77--------7-77------------------------------------------|
E|--------8-7-5-------8-7-5-------8-7-5--55555555555-----------------------|

Then repeat this part until the end of the song
G|-------------------------------------------------------------------------|
D|--777777777--555555555--333333333----------------------5/12-12-12-12-12--|
A|-----------------------------------3333333--555555555--------------------|
E|-------------------------------------------------------------------------|

On the last one don't slide from 5 to 12 on the D string, just end on the 5 on the A string.

Great song off By The Way...the tab should be %100 accurate, if you find any
corrections, please email me, because that means i've been playing it wrong.
Comments