Red Hot Chili Peppers - Venice Queen Chords & Tabs

 

Venice Queen Chords & Tabs

Red Hot Chili Peppers Chords & Tabs

Version: 1 Type: Bass Tab 0 ratings
1 star 2 stars 3 stars 4 stars 5 stars
comments

Venice Queen Bass Tab

   
Track:Venice Queen
Album:By The Way
Artist:Red Hot Chili Peppers
Tabbed by Daniel Jones
The intro is just guitar then bass and drums start

Verse

G---------------------------------------------
D---------------------------------------------
A-7-7-7-7-7-7-7-7-5-6-------------------------
E---------------------------------------------

The next part is

G-----------------------------------------------
D-----------------------------------------------
A-3-3-3-3-3-3--0-0-0-0-0-0----------------------
E-----------------------------------------------

Then back into the first riff

The last note that is played before John plays the acoustic riff
is your open E

G-----
D-----
A-----
E-0--- Let it ring out nicely

G----------------------------------------------------------
D----------------------------------------------------------
A-7-7-7-7-7-7--3-3-3-3--7-7-7-7-7-7-3-3-3-3----------------
E----------------------------------------------------------
[ Tab from: http://www.guitartabs.cc/tabs/r/red_hot_chili_peppers/venice_queen_btab.html ]
G----------------------------------------------------------
D----------------------------------------------------------
A-7-7-7-7-7-7--3-3-3-3--7-7-7-7-7/17-17-17-17-17-17-17-----
E----------------------------------------------------------


G---------------------------------------------------------
D-7-7-7-7-7-7-7-7-7-7-7-5-5-5-5-5-5-5-5-5-5-5-3-3-3-3-3-3-
A---------------------------------------------------------
E---------------------------------------------------------

G----------------------------------------------------------
D----------------------------------------------------------
A-3-3-3-3-3-5-5-5-5-5/17-17-17-17-17-----------------------
E----------------------------------------------------------

Ending with

G----------------------------------------------------------
D-7-7-7-7-7-7-7-7-7-7-7-5-5-5-5-5-5-5-5-5-5-5-3-3-3-3-3-3-3
A----------------------------------------------------------
E----------------------------------------------------------

G----------------------------------------------------------
D----------------------------------------------------------
A-3-3-3-3-3-3-3-5------------------------------------------
E----------------------------------------------------------

Great Song enjoy
Comments