Red Hot Chili Peppers - Universally Speaking Chords & Tabs

 

Universally Speaking Chords & Tabs

Red Hot Chili Peppers Chords & Tabs

Version: 5 Type: Tab 0 ratings
1 star 2 stars 3 stars 4 stars 5 stars
comments

Universally Speaking Tab

   
         Universally Speaking-Red Hot Chili Peppers

tabbed by TomAnthony

b =bend chord
b^=bend up 
b~=bend down
b*=small bend
/ =slide up
\ =slide down

Intro/Verse
e-------------------------------------------------------------------
B-----7-7-7-7-7-7-7-7--8-8-8-8-8-8-8-8------------------------------
G-----7-7-7-7-7-7-7-7--9-9-9-9-9-9-9-9------------------------------
D-----7b7b7b7b7b7b7b7b-7b7b7b7b7b7b7b7b-----------------------------
A-----5-5-5-5-5-5-5-5--7-7-7-7-7-7-7-7------------------------------
E-------------------------------------------------------------------

Chorus(Play chorus twice and play end chorus ...)     End Chorus
e-5555555555555555-4444444444444444-33333333----------| 00000000-00---
B-5555555555555555-5555555555555555-33333333-12-12-12-| 11111111-11-0-
G-6666666666666666-6666666666666666-44444444-11-11-11-| 22222222-22-2-
D-7777777777777777-7777777777777777-55555555-9---9--9-| 33333333-33-2-
A-0000000000000000-0000000000000000-55555555----------| 33333333-33-0-
E-----------------------------------------------------|---------------
[ Tab from: http://www.guitartabs.cc/tabs/r/red_hot_chili_peppers/universally_speaking_tab_ver_5.html ]
Solo
e---------------------------------------------------------------------
B---------------------------------------------------------------------
G---------------------------------------------------------------------
D-16-14-12-14-12-11-12-11-12-14b*-12-11-12-11\7-7-77------------------
A---------------------------------------------------------------------
E---------------------------------------------------------------------

e---------------------------------------------------------------------
B---------------------------------------------------------------------
G---------------------------------------------------------------------
D-16-14-12-14-12-11-12-11-12-14b*12-11-12-14b*/19--19--19-19----------
A---------------------------------------------------------------------
E---------------------------------------------------------------------

e---------------------------------------------------------------------
B---------------------------------------------------------------------
G---------------------------------------------------------------------
D-16-14-12-14-12-11-12-11-12-14b*12-11-12-11\7-7-77-------------------
A---------------------------------------------------------------------
E---------------------------------------------------------------------

e---------------------------------------------------------------------
B---------------------------------------------------------------------
G---------------------------------------------------------------------
D-7\5-4b^b~--0-0-------7--7/12----------------------------------------
A---------------------------------------------------------------------
E---------------------------------------------------------------------

The Order obvious so I wont confuse you.

Please rate this tab
Comments