Red Hot Chili Peppers - Universally Speaking Chords & Tabs

 

Universally Speaking Chords & Tabs

Red Hot Chili Peppers Chords & Tabs

Version: 2 Type: Tab 1 rating
1 star 2 stars 3 stars 4 stars 5 stars
comments

Universally Speaking Tab

Song: Universally Speaking
Artist: Red Hot Chili Peppers
Album: By The Way
Tabbed by Knockmedown


well, i'm not sure about the verse... this tab is closer to the live
version (denmark, december 01) than album version, i think.

Verse
e|------------------------------------|-----------------------------------|
B|------------------------------------|-----------------------------------|
G|-7---7---7---7-7---7---7---7----7-7-|-9---9---9---9-9---9---9---9---9-9-|
D|-7---7---7---7-7---7---7---7----7-7-|-9---9---9---9-9---9---9---9---9-9-|
A|-5---5---5---5-5---5---5---5----5-5-|-7---7---7---7-7---7---7---7---7-7-|
E|------------------------------------|-----------------------------------|
[ Tab from: http://www.guitartabs.cc/tabs/r/red_hot_chili_peppers/universally_speaking_tab_ver_2.html ]
Outro           (I know there's a couple of little mistakes in there)
e|---------------------------------------------------|
B|---------------------------------------------------|
G|-12-10-8-10-8-7----8-7-8-10--8-7-8-10--------------|
D|-------------------------------------/8---8--8-8-8-|
A|---------------------------------------------------|
E|---------------------------------------------------|

e|---------------------------------------------------|
B|------------------------------------/11---11-11-11-|
G|-12-10-8-10-8-7----8-7-8-10-8-7-8-10---------------|
D|---------------------------------------------------|
A|---------------------------------------------------|
E|---------------------------------------------------|

e|--------------------------------------------------|
B|--------------------------------------------------|
G|-12-10-8-10-8p7----8-7-8-10--8-7-8-7--------------|
D|------------------------------------/8---8--8-8-8-|
A|--------------------------------------------------|
E|--------------------------------------------------|

e|------------------------------------|
B|------------------------------------|
G|-------------------------8~~~-------|
D|-10-8-6-8-6-5-------8~~~------------|
A|--------------6~~~------------------|
E|------------------------------------|


any comments, additions email me at
knockmedown@redhotchilipeppers.zzn.com
Comments