Red Hot Chili Peppers - Universally Speaking Solo Chords & Tabs

 

Universally Speaking Solo Chords & Tabs

Red Hot Chili Peppers Chords & Tabs

Version: 3 Type: Tab 0 ratings
1 star 2 stars 3 stars 4 stars 5 stars
comments

Universally Speaking Solo Tab

yo dudes this is my first solo so go easy on me it should be right 
all my own work. try it out it is such a kick ass solo.


solo

e-------------------------------------
b-7--5---5-----------5-------5--------
g------7---7-6-7-6-7---7-6-7----------
d------------------------------7-7-7-7
a-------------------------------------
e-------------------------------------
[ Tab from: http://www.guitartabs.cc/tabs/r/red_hot_chili_peppers/universally_speaking_solo_tab_ver_3.html ]
e-----------------------------------------
b-7--5---5-----------5-------5s10-10-10-10
g------7---7-6-7-6-7---7-6-7--------------
d-----------------------------------------
a-----------------------------------------
e-----------------------------------------

e-----------------------------------------------------
b-7--5---5-----------5--------------------------------
g-----7---7-6-7-6-7----7-6-7-6------------------------
d------------------------------7-7-7-7-7-5-4-5-----7s12
a----------------------------------------------5-5----
e-----------------------------------------------------

if you have any comments on the song email me on njal3@hotmail.com
see ya later amigos
Comments