Red Hot Chili Peppers - Universally Speaking Solo Chords & Tabs

 

Universally Speaking Solo Chords & Tabs

Red Hot Chili Peppers Chords & Tabs

Version: 1 Type: Tab 0 ratings
1 star 2 stars 3 stars 4 stars 5 stars
comments

Universally Speaking Solo Tab

   
Universally Speaking Solo

song:   Universally Speaking 
artist: Red Hot Chili Peppers
album:  By the Way 2002
tabbed by Diego Molina die_u2@hotmail.com

solo D

e|---------------------------------------------------|
B|---------------------------------------------------|
G|-11-9-7-9-7-6----7-6-7-9--7-6-7-9/2-2---2-2-2------|
D|---------------------------------------------------|
A|---------------------------------------------------|
E|---------------------------------------------------|
[ Tab from: http://www.guitartabs.cc/tabs/r/red_hot_chili_peppers/universally_speaking_solo_tab.html ]
e|---------------------------------------------------|
B|---------------------------------------------------|
G|-11-9-7-9-7-6----7-6-7-9--7-6-7-9/14-14---14-14-14-|
D|---------------------------------------------------|
A|---------------------------------------------------|
E|---------------------------------------------------|

e|---------------------------------------------------|
B|---------------------------------------------------|
G|-11-9-7-9-7-6----7-6-7-9--7-6-7p6/2-2---2-2-2------|
D|---------------------------------------------------|
A|---------------------------------------------------|
E|---------------------------------------------------|

e|------------------------------------|
B|------------------------------------|
G|------------------------------------|
D|-7-5-4-5bp4------7--7b/12-----------|
A|------------5-5---------------------|
E|------------------------------------|
Comments