Red Hot Chili Peppers - Universally Speaking Chords & Tabs

 

Universally Speaking Chords & Tabs

Red Hot Chili Peppers Chords & Tabs

Version: 5 Type: Bass Tab 0 ratings
1 star 2 stars 3 stars 4 stars 5 stars
comments

Universally Speaking Bass Tab

Universally Speaking
Red Hot Chili Peppers
By The Way

tabbed by TomAnthony

                   *Play 6 times from start and repeat once up to + to
                                                        end the verse.
Intro/Verse
G---7-7-7-7-7-7-+---6-7--7-7-7-7-7-7-7--6-7*---------
D--0-0-0-0-0-0-0-4---------------------5-------------
A-------------------------7-7-7-7-7-7-7--------------
E----------------------------------------------------

Chorus
G------14--14---14-h-16-p-14-13---------13--13---13-h-14-p-13-----
D----14--14--14----------------14----14---14--14-------------14---
A-12------------------------------12---------------------------12-
E-----------------------------------------------------------------
[ Tab from: http://www.guitartabs.cc/tabs/r/red_hot_chili_peppers/universally_speaking_btab_ver_5.html ]
G------------------------------------------|----------------------
D----------------------------------------'-|3-3-3-3-3-------------
A-10--10-10-10--10-10---14-14---14---14--'-|---------5-5-5-5-5-5-0
E------------------------------------------|----------------------

Solo
G----14-----14-----14----12--0--12--0--12--12---0-12--0--12--------
D------14-----14-----------12-----12---------12-----12-------------
A---------0------0-------------------------------------------------
E------------------------------------------------------------------

G------------------------------------
D-12----12----12--12---12----12------
A---0-----0---------0----0-----------
E----10----10--------10---10---------

There is a guitar tab for Universally Speaking by me.
It just doesnt say my name cos its like my first tab.
Its called Universally Speaking Version 3 and its rated with 5 stars.
Comments