Red Hot Chili Peppers - Universally Speaking Chords & Tabs

 

Universally Speaking Chords & Tabs

Red Hot Chili Peppers Chords & Tabs

Version: 1 Type: Bass Tab 0 ratings
1 star 2 stars 3 stars 4 stars 5 stars
comments

Universally Speaking Bass Tab

Universally speaking
Red Hot Chili Peppers
Tabbed by pIRHANA


Main Riff

G-------------4----------------4-------------4----------------
D-------------------------------------------------------------  
A-5-5-5-5-5-5---x7-7-7-7-7-7-7---x5-5-5-5-5-5---x7-7-7-7-7-7--
E-------------------------------------------------------------

Variation

G-------------4----9-9-9-9-9-9--4----------------4------------
D-------------------------------------------------------------  
A-5-5-5-5-5-5---x7----------------x5-5-5-5-5-5-5--------------
E-------------------------------------------------------------

Chorus
[ Tab from: http://www.guitartabs.cc/tabs/r/red_hot_chili_peppers/universally_speaking_btab.html ]
G----------/14--------------------------/12------------------- |---------------|
D------------------------------------------------------------- |---------------|
A-12-12-12-----12-1212-12-12-12-10-10-10----10-1010-10-10-10-- |-x10-10-x10-x10|
E------------------------------------------------------------- |---------------|

Variation

G-------------------------------------------------------------
D-----------14---------------------------12-------------------  
A-12-12-12-----12-1212-12-12-12-10-10-10----10-1010-10-10-10--
E-------------------------------------------------------------

Guitar Solo

G-------------------------------------------------------------
D-----------14---------14-------------12------------------12--  
A-12-12-12-----12-1212----12-10-10-10----10-10-10-10-1010-----
E-------------------------------------------------------------

(just variate between these and finish on D)


Enjoy

Any Comments, questions etc --------> funkymonkey133@hotmail.com


Comments