Red Hot Chili Peppers - Under The Bridge Chords & Tabs

 

Under The Bridge Chords & Tabs

Red Hot Chili Peppers Chords & Tabs

Version: 8 Type: Tab 0 ratings
1 star 2 stars 3 stars 4 stars 5 stars
comments

Under The Bridge Tab

this is the best introduction i can do. and im going crazy because im a beginner and i can play this. DAMN! HELL YEHA!

e|-------------|---------------
B|3----3-------|2--------------
G|--2---2------|-----3---------
D|-4-4---------|--4---4-4-2-0--
A|5------4-2-0-|-4-4----------2
E|------------4|2--------------

e|----------------------|---------------
B|3--------3-5-3--------|---------------
G|------2--------2------|------3--------
D|---4---4---------4-6-6|---4---4-4-2-0-
A|4-5-5------------5-7-7|--4-4---------2
E|----------------------|2--------------
[ Tab from: http://www.guitartabs.cc/tabs/r/red_hot_chili_peppers/under_the_bridge_tab_ver_8.html ]
e|------------------|----------------
B|3-------3---------|2---------------
G|-----2---2--------|------3---------
D|----4-4----4-2-0--|---4---4-4-2-0--
A|4/5--------------4|--4-4----------2
E|------------------|2---------------
  SLIDE YOUR FINGERS ON THEESE THE 3-5-3.
            v^v^v
e|----------------------|-------------
B|3---------3-5-3-------|-------------
G|-------2-------2------|------3---3--
D|----4---4--------4-6-6|---4---4---4-
A|4-5--5-----------5-7-7|--4-4---4---4
E|----------------------|2------------

and that my FRiends Is the under the BRiDe intro. perfectly correct. please agree with me.
Comments