Red Hot Chili Peppers - Under The Bridge Chords & Tabs

 

Under The Bridge Chords & Tabs

Red Hot Chili Peppers Chords & Tabs

Version: 4 Type: Tab 8 ratings
1 star 2 stars 3 stars 4 stars 5 stars
comments

Under The Bridge Tab

   
#----------------------------------PLEASE NOTE---------------------------------#
#This file is the author's own work and represents their interpretation of the #
#song. You may only use this file for private study, scholarship, or research. #
#------------------------------------------------------------------------------#
#

Date: thur, 5 july 2001 
From: Alex Zaharakis
Subject: Under The Bridge Tab  This is 100% right

Under the Bridge
Red Hot Chili Peppers (Blood Sugar Sex Magik)

I tabbed this song beacuse no one else on the internet had it right.
I left out the ending of the song cuz i was tired and i doubt nobdy wants 
part beacause its easy. If u do, don't hesitate to email me at Zaharakis@aol.com

THis is RIGHT SO PLAY IT THIS WAY. TRUST ME!!!!!!!!!!!!!

--------------------------------------------------------------------

  
  Intro (without Capo)
e:------------------------------------------------------------------------|
B:3-----------3----------------------------------------------------2------|
G:------2--------2----------------------3---------------------------------|
D:0---4---4------------------------4--------4--4-2-0---------4--------4---|
A:---------------------4-2-0-----4---4---------------2--4/5-----5---------|
E:---------------------------4-2------------------------------------------|



[ Tab from: http://www.guitartabs.cc/tabs/r/red_hot_chili_peppers/under_the_bridge_tab_ver_4.html ]
         H P
e:-------------------------------------------------------------------|
B:-----3-5-3-------------2-------------------------------------------|
G:------------2----------------------3-------------------------2-----|
D:---------------4/6--6--------4--------4--4-2-0----------4--------4-|
A:---------------5/7--7-----4-----4--------------2--4/5-----5--------|
E:-----------------------2-------------------------------------------|




                                                              H P
e:-------------------------------------------------------------------|
B:3---------------------------------------------------------3-5-3----|
G:---2---------------------3--------------------------2------------2-|
D:-------------------4--------4--4-2-0-----------4--------4-----------|
A:------4-2-0------4-----4---------------2--4/5-----5-----------------|
E:------------4-2----------------------------------------------------|


                                            


e:-----------------------------------------|
B:-----------------------------------------|
G:---------------------3--------3----------|
D:-4/6--6--------4--------4--------4-------|
A:-5/7--7-----4-----4--------4--------4----|
E:---------2-------------------------------|


   Part I

   E   B   C#m          G#m A       E   B  C#m A
e:----------------------------------------------|                 |---|
B:-9----------9-------------------9-------------|                 |-9-|
G:-9--8--8/9--9--------5---6------9--8--9---6---|                 |-8-|
D:-9--9--9/11-9--------6---7------9--9--11--7---|                 |-9-|     This is the
A:-7--9--9/11-7--------6---7------7--9--11--7---|    
Comments