Red Hot Chili Peppers - Under The Bridge Chords & Tabs

 

Under The Bridge Chords & Tabs

Red Hot Chili Peppers Chords & Tabs

Version: 14 Type: Tab 0 ratings
1 star 2 stars 3 stars 4 stars 5 stars
comments

Under The Bridge Tab

Red Hot Chilli Peppers

City of Angels Intro
Standard tuning

-----------------------------------------------------------
-3------3-----------2------------------------3---------3/5/3
----2-----------------------3---3--------------------2-----
--4---4---4-------------4-----4---4-4-2-0--------4-0-------
------------4-2-0-----4---4----------------4-4/5-----------
------------------4-2--------------------------------------
[ Tab from: http://www.guitartabs.cc/tabs/r/red_hot_chili_peppers/under_the_bridge_tab_ver_14.html ]
------------------------------------------------------------
---------------------------3---------3-----------2----------
--------------3--------------------2---2-----------------3--
-4/-6-----4-----4--4-2-0-------4-0-------------------4------
-5/-7---4---4------------4-4/5-----------4-2-0-----4---4---4
------2----------------------------------------4-2----------

------------------------------------------------------------
--------3---------3/5/3-------------------------------------
----------------2-------------------3---3-------------------
4-2-0-------4-0---------4/-6-----4----4---4-1/4-------------
------4-4/5-------------5/-7---4---4------------------------
-----------------------------2------------------------------

This is all i could figure out... can never figure out chords...
hope it's useful.
Comments