Red Hot Chili Peppers - Under The Bridge Easy Chords & Tabs

 

Red Hot Chili Peppers Chords & Tabs

Version: 1 Type: Tab 11 ratings
1 star 2 stars 3 stars 4 stars 5 stars
comments

Under The Bridge Easy Tab

Hi,I'm a girl and find it hard to play some pieces coz i've got little hands.
This is one of my fave songs so it really annoyed me not being able to play.
So I changed how u play some of the notes - it's much easier than the 
origianal and sounds just the same.Also,every1 always gets some of
the high notes in the wrong places - this is exactly right.
enjoy! Pippa Borton

intro
e---------------------------|----------------------------|
B-3-----------3-------------|-2--------------------------|
G-------2-------2-----------|------------3---------------|
D-0---4-----4---------------|--------4-------4---4-2-----|
A-------------------4-2-----|----4-----4------------5-2--|
E-----------------------5-4-|-2--------------------------|
[ Tab from: http://www.guitartabs.cc/tabs/r/red_hot_chili_peppers/under_the_bridge_easy_tab.html ]
e-----------------------------|---------------------------|
B-3---------------------------|---------------------------|
G--------------7h9p7----------|------------3--------------|
D-----4---7-----------7-4/6-6-|-------4-------4---4-2-----|
A-4/5---5----9----------5/7-7-|----4-----4------------5-2-|
E-----------------------------|-2-------------------------|

e-----------------------------|---------------------------|
B-3---------------------------|-2-------------------------|
G----------------7------------|------------3--------------|
D-----4----7-------7----------|-------4-------4---4-2-----|
A-4/5---5-----9-------4-2-----|----4-----4------------5-2-|
E-------------------------5-4-|-2-------------------------|

e------------------------------|----------------------------|
B-3----------------------------|----------------------------|
G--------------7h9p7-----------|------------3-------3-------|
D-----4----7----------7--4/6-6-|-------4-------4------4-----|
A-4/5---5-----9----------5/7-7-|----4-----4------4------4/7-|
E------------------------------|-2--------------------------|
Comments