Red Hot Chili Peppers - Under The Bridge Chords & Tabs

 

Under The Bridge Chords & Tabs

Red Hot Chili Peppers Chords & Tabs

Version: 1 Type: Bass Tab 1 rating
1 star 2 stars 3 stars 4 stars 5 stars
comments

Under The Bridge Bass Tab

Song: Under the bridge
Artist: Red hot chili peppers
Album: Hot sugar s*x magik
Tabbed by: JJFH

This is how i heard it at Woodstock 99, but i think it's the same thing live... Hope u enjoy it since i'm the first one to tabbed it for BASS

After 4th line, 1st verse:
                     G--------------------------------------------------------------
                     D--------------------------------------------------------------
                     A--------------------------------------------------------------
                     E-0-0-0-0-0----------------------------------------------------

                     Then 1st chorus:                                             x2
                     G--6------4-------4------------6-----4-------4-----------------
                     D--4--2-2---2-------2-4-4-4-4--4-2-2---2-------2-4-4-4-6-4-6-4-
                     A-------------4-2------------------------4-2-------------------
                     E--------------------------------------------------------------

                     Verse:
                     G--------------------------------------------------------------
                     D--------------------------------------------------------------
                     A---2---0----2---0-0-------------------------------------------
                     E-0---4----0---4-----------------------------------------------

                     2nd Chorus:
                     G--6-----4-------4------------------6-----4-------4------------
                     D--4-2-2---2-------2-4-4-4-6-4-2-4--4-2-2---2-------2-4-4------
                     A------------4-2------------------------------4-2---------2-2--
                     E--------------------------------------------------------------

                     G--6-----4-------4------------------6------4-------4-----------
                     D--4-2-2---2-------2-4-4-4-6-4-6-4--4--2-2---2-------2-4-4-4-4-
                     A------------4-2-------------------------------4-2-------------
                     E--------------------------------------------------------------

                     Bridge:
                     G---9--------------7---------7---------------------------------
                     D-7---7-10-7-5-7-5---5-3-5-7---7-5-----------------------------
                     A--------------------------------------------------------------
                     E--------------------------------------------------------------

                     G---9-------------9-------7---------7--------------------------
                     D-7---7-10-10-7-7---7---5---5-3-5-7---7-5----------------------
                     A---------------------0----------------------------------------
                     E--------------------------------------------------------------

                     G---9---10---------7---------7---------------------------------
                     D-7---7----7-5-7-5---5-3-5-7---7-5-----------------------------
                     A--------------------------------------------------------------
                     E--------------------------------------------------------------

                     G--------------------------------------------------------------
                     D--------------------------------------------------------------
                     A-------------------3-3-3-3------------------------------------
                     E-1-1-1-1-1-0-0-0-0--------------------------------------------

                     G---9---10---------7---------7---------------------------------
                     D-7---7----7-5-7-5---5-3-5-7---7-5-----------------------------
                     A--------------------------------------------------------------
                     E--------------------------------------------------------------
[ Tab from: http://www.guitartabs.cc/tabs/r/red_hot_chili_peppers/under_the_bridge_btab.html ]
                     G-----------9-------7---------7--------------------------------
                     D-7-7-7-7-7---7---5---5-3-5-7---7-5----------------------------
                     A---------------0----------------------------------------------
                     E--------------------------------------------------------------

                     G---9---10---------7---------7---------------------------------
                     D-7---7----7-5-7-5---5-3-5-7---7-5-----------------------------
                     A--------------------------------------------------------------
                     E--------------------------------------------------------------

                     G-----------9-------7---------7--------------------------------
                     D-7-7-7-7-7---7---5---5-3-5-7---7-5----------------------------
                     A---------------0----------------------------------------------
                     E--------------------------------------------------------------

                     G---9---10---------7---------7---------------------------------
                     D-7---7----7-5-7-5---5-3-5-7---7-5-----------------------------
                     A--------------------------------------------------------------
                     E--------------------------------------------------------------

                     G---9-------------9-------7---------7--------------------------
                     D-7---7-10-10-7-7---7---5---5-3-5-7---7-5----------------------
                     A---------------------0----------------------------------------
                     E--------------------------------------------------------------

                     G---9---10---------7---------7---------------------------------
                     D-7---7----7-5-7-5---5-3-5-7---7-5-----------------------------
                     A--------------------------------------------------------------
                     E--------------------------------------------------------------

                     G---------------------7----------------------------------------
                     D-7-7-7-7-7-7-7-7---5---5-3-5-7---7-5--------------------------
                     A-----------------0--------------------------------------------
                     E--------------------------------------------------------------

                     G---9---10---------7---------7---------------------------------
                     D-7---7----7-5-7-5---5-3-5-7---7-5-----------------------------
                     A--------------------------------------------------------------
                     E--------------------------------------------------------------

                     G----9-----9-------7---------7---------------------------------
                     D--------7---7---5---5-3-5-7---7-5-----------------------------
                     A--0---0-------0-----------------------------------------------
                     E--------------------------------------------------------------

                     G---9---10---------7---------7---------------------------------
                     D-7---7----7-5-7-5---5-3-5-7---7-5-----------------------------
                     A--------------------------------------------------------------
                     E--------------------------------------------------------------

                     G----9-----9-------7-------------------------------------------
                     D--------7---7---5---5-3/7-------------------------------------
                     A--0---0-------0-----------------------------------------------
                     E--------------------------------------------------------------

Hope u enjoy it, i'll try to find more tabs for bass that there's not on the best tab site: www.guitartabs.cc
Comments