Red Hot Chili Peppers - Time Chords & Tabs

 

Time Chords & Tabs

Red Hot Chili Peppers Chords & Tabs

Version: 2 Type: Bass Tab 0 ratings
1 star 2 stars 3 stars 4 stars 5 stars
comments

Time Bass Tab

Song: Time
Artist: Red Hot Chili Peppers
Album: By the Way Single
Transcribed by Chris Valente
RedHotMetallica@aol.com

Haven't actually played this on bass ever, figured it out on my acoustic guitar.
So it might be wierd.....

  Intro

G|-------------------------------------------------
D|-------------------------------------------------
A|---------7~----------7~---------7~---------7~----
E|-5---5-5-----5---5-5----5---5-5----5---5-5-------

  Verse

G|-------------------------------------------------
D|-7---7---7---10101010----------------------------
A|-----------------------8---8---8---5555----------
E|-------------------------------------------------

  Chorus (Panned Hard Left)
[ Tab from: http://www.guitartabs.cc/tabs/r/red_hot_chili_peppers/time_btab_ver_2.html ]
G|-7-9--------7-9------7-9--------7-9--------------
D|-------------------------------------------------
A|-----7-7--7-----7-7------7-7--7-----7------------
E|-------------------------------------------------
					  ^ Insert 
					 Fill Here
G|-14--14/16-16-14-|-16-19-16-19/21-21-19----------
D|-----------------|-------------------------------
A|-----------------|-------------------------------
E|-----------------|-------------------------------
   Fill 1	     Fill 2

  Bridge/Outro (Not Exact, in fact, very wrong)

G|-------------------------------------------------
D|--------14-16-16------12-14-14-------------------
A|-14--17------------12----------------------------
E|--------------------------------15-1515----------
Comments