Red Hot Chili Peppers - Throw Away Your Television Chords & Tabs

 

Throw Away Your Television Chords & Tabs

Red Hot Chili Peppers Chords & Tabs

Version: 6 Type: Bass Tab 0 ratings
1 star 2 stars 3 stars 4 stars 5 stars
comments

Throw Away Your Television Bass Tab

   
Red Hot Chilli Peppers
Throw Away Your Television
Tabbed by Don Willow
WARning296@msn.com

Standard Tuning (E,A,D,G)

/- Slide Down
h- Hammer on
p- pull off

This song is a typical Flea, so its a little crazy at first, but is actually pretty easy.

0:01 seconds
Intro (x4)
G-|-----------------------|------------------------|
D-|-----------------------|-----2---2-2--2-2-------|
A-|-----------------------|--------------------3-3-|
E-|-5--5-5-0-5-5--5-0-5-3-|-0-0---0----------0-----|

Verse (x17)
G-|-----------------------|------------------------|
D-|-----------------------|-----2---2-2--2-2-------|
A-|-----------------------|--------------------2-3-|
E-|-5--5-5-0-5-5--5-0-5-3-|-0-0---0----------0-----|

1:20 minutes
Chorus (x2) *This part is extremely hard to hear*
G-|------16--------14--------12--------10-|
D-|---14--------14--------12--------10----|
A-|-0---------0---------0---------0-------|
E-|---------------------------------------|

1:36 minutes
Verse (x10)
G-|-----------------------|------------------------|
D-|-----------------------|-----2---2-2--2-2-------|
A-|-----------------------|--------------------2-3-|
E-|-5--5-5-0-5-5--5-0-5-3-|-0-0---0----------0-----|
[ Tab from: http://www.guitartabs.cc/tabs/r/red_hot_chili_peppers/throw_away_your_television_btab_ver_6.html ]
2:16 minutes
Chorus (x2)
G-|------16--------14--------12--------10-|
D-|---14--------14--------12--------10----|
A-|-0---------0---------0---------0-------|
E-|---------------------------------------|

"Throw away your television now..."
2:32 minutes
Interlude (x4)
G-|-2-2--2-2--2-2--2-2--2-2-2-2-|-4-4--4-4--4-4--4-4--4-4-4-4-|
D-|-----------------------------|-----------------------------|
A-|-----------------------------|-----------------------------|
E-|-----------------------------|-----------------------------|

G-|-/7-7--7-7--7-7--7-7--7-7-7-7-|-/9-9--9p7--7-7-7h9--7-7-7p9--7-7-7h9-|
D-|------------------------------|--------------------------------------|
A-|------------------------------|--------------------------------------|
E-|------------------------------|--------------------------------------|

*No bass after interlude for 8 measures*

3:03 minutes
Verse (x4)
G-|-----------------------|------------------------|
D-|-----------------------|-----2---2-2--2-2-------|
A-|-----------------------|--------------------2-3-|
E-|-5--5-5-0-5-5--5-0-5-3-|-0-0---0----------0-----|

3:35
End Note 
G-|---|
D-|---|
A-|---|
E-|-0-|

This song took me forever to tab, but i think its nearly 100% correct, hope you have fun.
Comments