Red Hot Chili Peppers - This Velvet Glove Chords & Tabs

 

This Velvet Glove Chords & Tabs

Red Hot Chili Peppers Chords & Tabs

Version: 4 Type: Tab 0 ratings
1 star 2 stars 3 stars 4 stars 5 stars
comments

This Velvet Glove Tab

song:This Velvet Glove
artist:Red Hot Chili Peppers
album:Californication


                INTRO

--------------------------------|    X2
--------------------------------|
----5-7---5-7-------------------|
--7-----5-----3-2-3-2-----------|
--------------------------------|
--------------------------------|

-----------------------------------|
-----------------------------------|
--12-10-9-----------14-12----------|
----------10-10/12--------14-10-12-|
-----------------------------------|
-----------------------------------|


             VERSE
JOHN PLAYS THIS IN A VERY RANDOM WAY. I DONT THINK THERE
IS A SET ORDER FOR THIS BIT.
-----------------12X12X-----------------12X12X------------|
-----------------13X13X-----------------13X13X------------|
-14-14-14--14-14--------14-14-14--14-14--------14---------|
----------------------------------------------------------|
----------------------------------------------------------|
----------------------------------------------------------|

           PRE-CHORUS
[ Tab from: http://www.guitartabs.cc/tabs/r/red_hot_chili_peppers/this_velvet_glove_tab_ver_4.html ]
-5-5-5-5-5-5--7-7-7-7-7-7--10-10-10-10-10--12-12/-15-15-|
--------------------------------------------------------|
--------------------------------------------------------|
--------------------------------------------------------|
--------------------------------------------------------|
--------------------------------------------------------|

           CHORUS

YOUR SOLAR EYES....

-12-10-10-12-10-10-17-15-15-17-15-15-17---|    X3
------------------------------------------|
------------------------------------------|
------------------------------------------|
------------------------------------------|
------------------------------------------|

--15-13-13-15-13-13-15--10-10-10-10-10-10-|
------------------------------------------|
------------------------------------------|
------------------------------------------|
------------------------------------------|
------------------------------------------|

        INTERLUDE 1

-----8-10------------8-10----------------|
--10------8-10----10------8-10-----------|
-----------------------------------------|
-----------------------------------------|
-----------------------------------------|
-----------------------------------------|

        INTERLUDE 2

-----------------|
-18--------------|
----15-17----15--|
----------17-----|
-----------------|
-----------------|

SONG ORDER:

INTRO X1
VERSE (as many times as needed)
INTRO X1
VERSE
CHORUS X1
INTERLUDE 1 X1
VERSE
PRE CHORUS X1
CHORUS X2
INTERLUDE 2 X1
VERSE
Comments