Red Hot Chili Peppers - This Velvet Glove Chords & Tabs

 

This Velvet Glove Chords & Tabs

Red Hot Chili Peppers Chords & Tabs

Version: 3 Type: Tab 0 ratings
1 star 2 stars 3 stars 4 stars 5 stars
comments

This Velvet Glove Tab

Band : Red hot chilli peppers
Song : This velvet glove

Tabber : Wrath_014 (spairo)

Intro :
E||------------------------------------------------------|
B||-------------------------------------10---------------|
G||------------------------12-10-9--------12-9-----------|
D||--10-12---10-12------x2--------10h12-------10h12-12-12|
A||12------10-----8-8-8----------------------------------|
E||------------------------------------------------------|

Intro (overdriven) Acoustic Guitar:
E||111xx-------------------------------------------------|
B||333xx-11111-33333333333-------------------------------|
G||222xx-00000-33333333333-------------------------------|
D||------22222-33333333333-------------------------------|
A||------33333-11111111111-------------------------------|
E||------------------------------------------------------|

Veres:
E||------------------------------------------------------|
B||------------1313--------------1313--------------------|
G||14--14--14--1212-14-14-14-14--1212--------------------|
D||------------------------------------------------------|
A||------------------------------------------------------|
E||------------------------------------------------------|
[ Tab from: http://www.guitartabs.cc/tabs/r/red_hot_chili_peppers/this_velvet_glove_tab_ver_3.html ]
Chorus:                                                                      
E||--12--10--10--12-12-12--10--10--17-17--17--15--15--17-17-17--15--15-|
B||--10--10--10--10-10-10--10--10--15-15--15--15--15--15-15-15--15--15-|
G||--------------------------------------------------------------------|
D||--------------------------------------------------------------------|
A||--------------------------------------------------------------------|
E||--------------------------------------------------------------------|
                                                                     
E||--12--10--10--12-12-12--10----17----17--15--15--17-17-17--15--15----|
B||--10--10--10--10-10-10--10----15----15--15--15--15-15-15--15--15----|
G||--------------------------------------------------------------------|
D||--------------------------------------------------------------------|
A||--------------------------------------------------------------------|
E||--------------------------------------------------------------------|
                                                                        
E||--12--10--10--12-12-12--10----17-17--17--15--15--17-17-17--15--15---|
B||--10--10--10--10-10-10--10----15-15--15--15--15--15-15-15--15--15---|
G||--------------------------------------------------------------------|
D||--------------------------------------------------------------------|
A||--------------------------------------------------------------------|
E||--------------------------------------------------------------------|
                                                                        
E||--15--13--13--15--15--13----10-10--10--8---8---10-10-10--8---8---8--|
B||--13--13--13--13--13--13----10-10--10--10--10--10-10-10--10--10--10-|
G||--------------------------------------------------------------------|
D||--------------------------------------------------------------------|
A||--------------------------------------------------------------------|
E||--------------------------------------------------------------------|

Interlude:
E||------------------------------------------------------|
B||--13-15-----------------------------------------------|
G||14-----12-14-14-14-14-14-14---------------------------|
D||------------------------------------------------------|
A||------------------------------------------------------|
E||------------------------------------------------------|

Interlude 2 :
E||-5--5--5-5-5-5-5--5--5-5-5---7--7--7-7-7--7--7--7-7-x-x|
B||-5--5--5-5-5-5-5--5--5-5-5---5--5--5-5-5--5--5--5-5-x-x|
G||-5--5--5-5-5-5-5--5--5-5-5---5--5--5-5-5--5--5--5-5-x-x|
D||-------------------------------------------------------|
A||-------------------------------------------------------|
E||-------------------------------------------------------|
                                                                        
E||10--10--10-10-10--10--10--10-10-10---12--12--12-12/15-x-15----15-|
B||10--10--10-10-10--10--10--10-10-10---10--10--10-------x-13----x--|
G||9---9---9--9--9---9---9---9--9--9----9---9---9--------x-14----14-|
D||10--10--10-10-10--10--10--10-10-10---10--10--10------------------|
A||-----------------------------------------------------------------|
E||-----------------------------------------------------------------|

Interlude 3:

E||13-15-17----------------------------------------------|
B||--------13-15-15-15-15-15-----------------------------|
G||------------------------------------------------------|
D||------------------------------------------------------|
A||------------------------------------------------------|
E||------------------------------------------------------|


Well thats all .don't forget to rate:)
Comments