Red Hot Chili Peppers - This Velvet Glove Chords & Tabs

 

This Velvet Glove Chords & Tabs

Red Hot Chili Peppers Chords & Tabs

Version: 1 Type: Tab 1 rating
1 star 2 stars 3 stars 4 stars 5 stars
comments

This Velvet Glove Tab

   
Artist:Red Hot Chili Peppers
Song:This Velvet Glove


       
           Intro/Break
E)-------------------------------    -----------------------------------|
B)-------------------------------    -----------------------------------|
G)-------------------------------    -12-10-9-------------14-12-9-------|
D)----10-12----10-12-------------    ---------10/12-12-12---------10/12-|
A)-12-------10-------------------    -----------------------------------|
E)-------------------13-13-13-13- X2 -----------------------------------|



         Verse

E)-12-12-12-12-12-------------|
B)-13-13-13-13-13-------------|
G)-12-12-12-12-12-14-14-14-14-|
D)----------------------------|
A)----------------------------|
E)----------------------------|

     

      CHORUS

[ Tab from: http://www.guitartabs.cc/tabs/r/red_hot_chili_peppers/this_velvet_glove_tab.html ]
E|-10-10-10--12----10--12----15-15-15--17----15--17-|
B|-10-10-10--10----10--10----15-15-15--15----15--15-|
G|--------------------------------------------------|
D|--------------------------------------------------|
A|--------------------------------------------------|
E|--------------------------------------------------|

E|-13-13-13--15----13--15----8-8-8--10----8--10-|
B|-13-13-13--13----13--13----8-8-8--8-----8--8--|
G|----------------------------------------------|
D|----------------------------------------------|
A|----------------------------------------------|
E|----------------------------------------------|


    Interlude 1

e|--------------------------------|
B|------13-15---------------------|
G|--14--------12-14--14--14-14----|
D|--------------------------------|
A|--------------------------------|
E|--------------------------------|

E|----------------------|
B|------13-15-----------|
G|--14--------12-14-----|
D|----------------------|
A|----------------------|
E|----------------------|


    Interlude 2

E|--13---15-17-------------|
B|------------13-15---15---|
G|-------------------------|
D|-------------------------|
A|-------------------------| x2
E|-------------------------|


there are some chords that are strumed through the verse i think they are 
Dm,c,Am     i cant be sure though



Comments