Red Hot Chili Peppers - This Velvet Glove Chords & Tabs

 

This Velvet Glove Chords & Tabs

Red Hot Chili Peppers Chords & Tabs

Version: 1 Type: Bass Tab 0 ratings
1 star 2 stars 3 stars 4 stars 5 stars
comments

This Velvet Glove Bass Tab

This Velvet Glove - Bass Tab

By the Red Hot Chili Peppers
>From the album Californication
Tabbed by Robert Petersson (mr.schh@post.netlink.se) and Eric Siljander (eds@sfu.ca)

Intro
G|-----12-10----10-12---9-10-9-9--|
D|--12-------10-------8-----------|
A|--------------------------------|
E|--------------------------------|

G|--------------------------------------|----------------12-10--------------------|
D|--12--12-12--10-10-10--8--8-8--8-8-8--|--12--12-12--10-------8--8-8-8--8-8-8-8--|
A|--------------------------------------|-----------------------------------------|
E|--------------------------------------|-----------------------------------------|

Verse 1
G|-----12-10----10-12---9-10-9-9--|-----12-10----10-12---9-10-9--|
D|--12-------10-------8-----------|--12-------10-------8---------|
A|--------------------------------|------------------------------|
E|--------------------------------|------------------------------|

"Bridge 1"
G|----------------------------------------|
D|--12--12-12--10-10-10--8--8-8-8--8-8-8--|
A|----------------------------------------|
E|----------------------------------------|
[ Tab from: http://www.guitartabs.cc/tabs/r/red_hot_chili_peppers/this_velvet_glove_btab.html ]
G|----------------12-10------------------|-----12-10----10-12---9-9-10-10-9-9--|
D|--12--12-12--10-------8--8-8-8--8-8-8--|--12-------10-------8----------------|
A|---------------------------------------|-------------------------------------|
E|---------------------------------------|-------------------------------------|

Verse 2 (same as Verse 1 but only twice)
Chorus 1
G|--7---------7------------------------------7---------7-------
D|----------------------7---------7----------------------------
A|----5--5--x---5--5------------------------x--5--5--x---5--5--
E|--------------------x---5--5-5----5--5-x---------------------
    P S  S  S P S  S  S P S  S S  P S  S S  SP S  S  S P S  S 

-------------------------7---------7-----------------------------
----7---------7------------------------------7---------7---------
---------------------------5--5--x---5--5------------------------
--x---5--5-5----5--5-x---------------------x---5--5-5----5--5-x--
  S P S  S S  P S  S S   P S  S  S P S  S  S P S  S S  P S  S S 

--5----------5---------5---------------------|
-------------5---------5---------------------|
-----3--3--3---3--3--3---3--x----------------|
-------------------------------5--5----5--5--|
  P  S  S  S P S  S  S P S  S  S  S    S  S

"Bridge 2" (Same as Intro)

Verse 3 (Same as Verse 1)

Interlude
G|-----------------------------------------------------------------|
D|--7-7--x7-7-7--x7-7-7--x7-7-7--x7-7-7--x7-7-7--x7-7-7--x7--7--7--|
A|-----------------------------------------------------------------|
E|-----------------------------------------------------------------|

Chorus 2 (same as Verse 1 but twice as long)

"Bridge 3" (same as Intro)

Verse 4 (Same as Verse 1)



Comments