Red Hot Chili Peppers - This Is The Place Chords & Tabs

 

This Is The Place Chords & Tabs

Red Hot Chili Peppers Chords & Tabs

Version: 3 Type: Tab 0 ratings
1 star 2 stars 3 stars 4 stars 5 stars
comments

This Is The Place Tab

   
#----------------------------------PLEASE NOTE--------------------------------#
#This file is the author's own work and represents their interpretation of the#
#song. You may only use this file for private study, scholarship, or research.#
#-----------------------------------------------------------------------------#
#-- File created with Instab - http://www.pconline.com/~smcarey/instab.html --#
#-----------------------------------------------------------------------------#

Author/Artist: Red Hot Chili Peppers
Title: This is the Place
Album: By the Way
Transcribed by: Chris Valente
Email: RedHotMetallica@aol.com

Envelope Filter/Phase Shifter/Flanger, it's all good.

 Intro

-12-------x-x-x-x-x-x-x-x-x-x-x-x-x-x-x-x--x-x----------------------
-13-------x-x-x-x-x-x-x-x-x-x-x-x-x-x-x-x--x-x----------------------
--------------------------------------------------------------------
--------------------------------------------------------------------
--------------------------------------------------------------------
--------------------------------------------------------------------

 Chorus                                                                       
[ Tab from: http://www.guitartabs.cc/tabs/r/red_hot_chili_peppers/this_is_the_place_tab_ver_3.html ]
--------12------------------15-12-----------12----------------------
---13------13--------13----------15---13-------13-----13-1515-13-15-
-14--14-------14---14--14-----------14---14-------14--14-1414-14-14-
--------------------------------------------------------------------
--------------------------------------------------------------------
--------------------------------------------------------------------

 Bridge                                                                       

--------------------------------------------------------------------
--------------------------------------------------------------------
----------14----------14-----------------14-------------------------
-12-14-12----12-14-12----121412-12-14-12----12-14--12--------12-----
------------------------------------------------------15--15----12--
--------------------------------------------------------------------

 Interulude                                                                   

-1-|-0-|-1-|-1------------------------------------------------------
-1-|-1-|-3-|-3------------------------------------------------------
-2-|-0-|-2-|-2------------------------------------------------------
-3-|-2-|-0-|-0------------------------------------------------------
-3-|-3-|---|--------------------------------------------------------
-1-|---|---|--------------------------------------------------------
 F   C  Dm   %                                                               
Comments