Red Hot Chili Peppers - This Is The Place Chords & Tabs

 

This Is The Place Chords & Tabs

Red Hot Chili Peppers Chords & Tabs

Version: 10 Type: Bass Tab 0 ratings
1 star 2 stars 3 stars 4 stars 5 stars
comments

This Is The Place Bass Tab

Song: This is the Place
Artist: Red Hot Chili Peppers
Album: By The Way

Below are two ways to play the song. Just repeat one of them over and over again.
There is no bass in the acousitc part of the song.
[ Tab from: http://www.guitartabs.cc/tabs/r/red_hot_chili_peppers/this_is_the_place_btab_ver_10.html ]
E|--------------------------------------------------------------------|
A|-----------------------------------5-5-5-------8-8-8--3-3-3-----5-5-|
D|-7-7-7-----5-5-5--3-3-3------------------7-7-7--------------5-5-----|
G|-------5-5--------------5-5--2-2-2----------------------------------|

Or play it this way

E|-------------------------------------------------------------------|
A|-------------------------------5-5-5------------3-3-3-----5-5-5----|
D|---------5-5-5-3-3-3----------------------3-3-3-------5-5----------|
G|-2-2-2-5-------------5-5-2-2-2--------2-2--------------------------|

Both sound the same and are about the same. Its really just a matter of what one
is easier for you or you prefer sound wise.

Have fun with this one
Jeremy Fox
Comments