Red Hot Chili Peppers - The Zephyr Song Chords & Tabs

 

The Zephyr Song Chords & Tabs

Red Hot Chili Peppers Chords & Tabs

Version: 6 Type: Tab 0 ratings
1 star 2 stars 3 stars 4 stars 5 stars
comments

The Zephyr Song Tab

-------------------------------------------------------------------------------------
Artist    : RedHotChiliPeppers
Album     :By the Way
Song      :The Zephyr Song
Tabber    :Mellowbassfunkster (email: mellowbassfunkster@mail.com)
-------------------------------------------------------------------------------------
Legend:
^ = Bend    ~ = Ring    \ or / = Slide (to the left or right)

Notes:
This should be easier on the fingers compared to the other tabs of this song on the site(well
it’s easy for me anyways…) so enjoy!
Ohh and listen to the song carefully to get an accurate rhythm.

INTRO:
E|-------------------------------------------------------------|
B|-----8-------6----------------------5------3-------------5~--|
G|---5-------3--------4-------5-----5------3--------4------5~--|
D|-7-------5--------5-------7-----7------5--------5------7-----|
A|----------------7-------8---------------------7------8-------|
E|-------------------------------------------------------------|

VERSE1:   (x2)                                                        1ST TIME
E|-----------------------------------------------------------------|------------|
B|------5-----8---6---5------3---653-------------------------------|------------|
G|----5---5----------------3---3----------4-----7---5---4-------5--|-7/9-7-5-45-|
D|--7--------------------5--------------5---5-----------------7----|------------|
A|------------------------------------7---------------------8------|------------|
E|-----------------------------------------------------------------|------------| 
2nd TIME
E|------------|
B|------------|
G|--7/9-7-5~--|
D|------------|
A|------------|
E|------------|

E|-------------5------------------------------------------------------|
B|------5----8---5-------3----653-------------------------------------|
G|----5---5------------3---3--3~--------4---7---9---5-------5-------5-|
D|--7----------------5----------------5---5---------------7-------7---|
A|----------------------------------7-------------------8-------8-----|
E|--------------------------------------------------------------------|

CHORUS1:  (x2)
E|---------------------------------------------------------|
B|---------------------------------------------------------|
G|---------------------------------------------------------|
D|----4----7----4----7---4---------9----7----7----7--9--7--|
A|--5----5----5----5----5--5----7----7----7------7--7--7---|
E|---------------------------------------------------------|
Chorus Outro:
E|--------------------------------------------------------------------------|
B|------5----8---6---5------3----653----------------------------------------|
G|----5---5---------------3---3------------4----7---5---4-------5—7/9-7-5~--|
D|--7-------------------5----------------5---5----------------7-------------|
A|-------------------------------------7--------------------8---------------|
E|--------------------------------------------------------------------------|

VERSE2
E|-----------------------------------------------------------------------|
B|------5---8---6---5-------3----6535------------------------------------|
G|----5---5---------------3---3------------4---7-545-------5-7/9-7-5-7-9-|
D|--7-------------------5----------------5---5-----------7---------------|
A|-------------------------------------7---------------8-----------------|
E|-----------------------------------------------------------------------|
[ Tab from: http://www.guitartabs.cc/tabs/r/red_hot_chili_peppers/the_zephyr_song_tab_ver_6.html ]
E|-------------5---------------------------------------------------------|
B|------5----8---5------3----653-----------------------------------------|
G|----5---5-----------3---3--3~---------4----7---9---5-------5--------5--|
D|--7---------------5-----------------5---5----------------7--------7----|
A|----------------------------------7--------------------8--------8------|
E|-----------------------------------------------------------------------|

CHORUS2
E|------------------------------------------------------------|
B|------------------------------------------------------------|
G|------------------------------------------------------------|
D|----4----7----4----7----4---------9-----7-----7----797---7--|
A|--5----5----5-----5----5--5----7-----7-----7-----7-----7----|
E|------------------------------------------------------------|

E|--------------------------------------------------------|
B|--------------------------------------------------------|
G|--------------------------------------------------------|
D|----4----7----4----7----4---------9----7----7---797-7---|
A|--5----5----5----5----5---5----7----7----7----7-------7-|
E|--------------------------------------------------------|

E|-------------------------------------------------------|
B|-------------------------------------------------------|
G|-------------------------------------------------------|
D|----4---7---4----7---54--------9----7----7----797---7--|
A|--5---5---5----5--------5----7----7----7----7-----7----|
E|-------------------------------------------------------|

E|-----------------------------------------------------|
B|-----------------------------------------------------|
G|-----------------------------------------------------|
D|----4---7---7---7---54-------9----7----7----797---7--|
A|--5---5---5---5-------5----7----7----7----7-----7----|
E|-----------------------------------------------------|

SOLO
E|--12101212-12-10-12-----------1081010-10-8-10-12----------|
B|--------------------12^1210----------------------12^1210\-|
G|----------------------------------------------------------|
D|----------------------------------------------------------|
A|----------------------------------------------------------|
E|----------------------------------------------------------|

E|--12101212-10-12--------------1081010-10-8-10-12----------|
B|-----------------12^1210-------------------------12^1210--|
G|---------------------------------------------------------9|
D|----------------------------------------------------------|
A|----------------------------------------------------------|
E|----------------------------------------------------------|
…..then it breaks into a bunch of indecipherable chords so I haven’t put them in but
if u so happen to know them feel free to email me the corrections and i'll modify the tab.

CHORUS3: (x2)
E|--------------------------------------------------------------|
B|--------------------------------------------------------------|
G|--------------------------------------------------------------|
D|----4----7----4----7----4----------9----7---9-7----7---9---7--|
A|--5---5-----5----5----5---5-----7----7-----------7---7---7----|
E|--------------------------------------------------------------|

CHORUS3.2:  (x2)
E|-----------------------------------------------------------|
B|-----------------------------------------------------------|
G|-----------------------------------------------------------|
D|----4----7----4-----7---54--------9----7---9-7---7---9--7--|
A|--5----5----5-----5--------5----7----7----------7---7--7---|
E|-----------------------------------------------------------|

OUTRO  (x4)
E|-----------------------------------------------------------|
B|-----------------------------------------------------------|
G|-----------------------------------------------------------|
D|----4----7----4----7---54--------9---7---9-7----7---9---7--|
A|--5----5----5----5--------5----7---7-----------7---7---7---|
E|-----------------------------------------------------------|
By Mellowbassfunkster (Erni Llenos)
Comments