Red Hot Chili Peppers - The Zephyr Song Chords & Tabs

 

The Zephyr Song Chords & Tabs

Red Hot Chili Peppers Chords & Tabs

Version: 5 Type: Tab 0 ratings
1 star 2 stars 3 stars 4 stars 5 stars
comments

The Zephyr Song Tab

By: Red Hot Chili Peppers
Song: The Zephyr Song
Album:By The Way
Tabbad By: Josh Lead
Tuning: Standard (EADGBe)

This is my first tab so go easy.

Intro:

e|--------------------------------------------------
B|--------------------------------------------------
G|-------12-------10-----------------9--------------
D|----10--------9--------5-9------10----------------
A|-12--------10--------7--------8-------------------
E|--------------------------------------------------
[ Tab from: http://www.guitartabs.cc/tabs/r/red_hot_chili_peppers/the_zephyr_song_tab_ver_5.html ]
e|--------------------------------------------------
B|--------------------------------------------------
G|-----9--------7--------2--------5-----------------
D|---7--------5--------2--------5-------------------
A|-7--------5--------4--------3---------------------
E|--------------------------------------------------

Solo:

e|------------------------------------------------------------
B|-17-15-17-17---15-17-13s12-12---15-13-15-15---13-15-11s10-10
G|------------------------------------------------------------
D|------------------------------------------------------------
A|------------------------------------------------------------
E|------------------------------------------------------------
               x2
Thats all ive got at the moment but ill sent in the rest when I get it.
Laterz
Comments