Red Hot Chili Peppers - The Zephyr Song Chords & Tabs

 

The Zephyr Song Chords & Tabs

Red Hot Chili Peppers Chords & Tabs

Version: 4 Type: Tab 1 rating
1 star 2 stars 3 stars 4 stars 5 stars
comments

The Zephyr Song Tab

   
The Zephyr Song
Red Hot Chili Peppers
By The Way

tabbed by TomAnthony

Intro
e-----3-----1---------------------0-------------------0--------------|
B---1-----0-------0------1------1--------3------0-----1--------------|
G-2-----0-------0------2------2--------4------0-----2----------------|
D-------------2------3---------------5------2-----3------------------|
A--------------------------------------------------------------------|
E--------------------------------------------------------------------|

Verse
e-----0--3-1-0-------------------------------------------------------|
B---1---------------3---6-5-3------0---3-1-0------1-3/5-3------------|
G-2-----2---------4--------------0--------------2---------5-4-5------|
D---------------5-----5--------2-----2--------3----------------------|
A--------------------------------------------------------------------|
E--------------------------------------------------------------------|

e-----0--3-1-0-------------------------------------------------------|
B---1---------------3---6-5-3------0---3-1-0------1----0-1-----------|
G-2-----2---------4--------------0--------------2--------------------|
D---------------5-----5--------2-----2--------3------3---------------|
A--------------------------------------------------------------------|
E--------------------------------------------------------------------|
[ Tab from: http://www.guitartabs.cc/tabs/r/red_hot_chili_peppers/the_zephyr_song_tab_ver_4.html ]
Chorus (2nd time strum chords)
   D               G       A        D          G       A
e--------------------------------------------------------------------|
B-10---------------3-------5-------10----------3-------5-------------|
G-11---------------4-------6-------11----------4-------6-------------|
D-12---------------5-------7-------12----------5-------7-------------|
A-12---------------5-------7-------12----------5-------7-------------|
E--------------------------------------------------------------------|

Interlude
     A            G           E             F
e----12-----------10----------7-------------8------------------------|
B----13-----------12----------8------------10------------------------|
G----14-----------12----------9------------10------------------------|
D----14-----------12----------9------------10------------------------|
A--------------------------------------------------------------------|
E--------------------------------------------------------------------|

Solo
e-12-10-12-12~--10-12---------------10--10-10~-10-12------------------|
B--------------------12b1/2-(12)-10---13------------12b1/2-(12)-10----|
G---------------------------------------------------------------------|
D---------------------------------------------------------------------|
A---------------------------------------------------------------------|
E---------------------------------------------------------------------|

e-12-10-12-12~--10-12---------------10--10-10~-10-12-----------------|
B--------------------12b1/2-(12)-10---13------------12b1/2-(12)-10---|
G--------------------------------------------------------------------|
D--------------------------------------------------------------------|
A--------------------------------------------------------------------|


Fin~


sorry,this tab has been a mess for quite some time.
but i just discovered today that you can edit your past tabs and I am doing so.

questions,suggestions and complaints to:
                      dirtyaldante@hotmail.com
Comments