Red Hot Chili Peppers - The Zephyr Song Chords & Tabs

 

The Zephyr Song Chords & Tabs

Red Hot Chili Peppers Chords & Tabs

Version: 3 Type: Bass Tab 0 ratings
1 star 2 stars 3 stars 4 stars 5 stars
comments

The Zephyr Song Bass Tab

#----------------------------------PLEASE NOTE---------------------------------#
#This file is the author's own work and represents their interpretation of the-#
#song. You may only use this file for private study, scholarship, or research.-#
#---------------This file was downloaded from www.taborama.com-----------------#
#------------------------------------------------------------------------------#

Red Hot Chili Peppers
The Zephyr Song
Intro
G----------------------------|
D----------------------------|
A-12~-----10~-----7~-----8~--|
E----------------------------|

1st Verse  (0:16)
G--------------------------------------------|
D------------------------------------9~-9----|
A-12-----14~-14-12--10--12~-12-10\7-------7--|
E--------------------------------------------|

G----------------------------------------------|
D----------------------------------------------|
A-8--8------8--12---14~-14-12--10--12~-12-10\--|
E------8~-8------------------------------------|

G-------------------------------------------------|
D------9~-9---------------------------------------|
A-7--7------7--8--8------8-10--12--12-14~-14-12\--|
E-------------------8~-8--------------------------|

G------------------------------------------------|
D--------12~-12---------9~-9---------------------|
A-10--10--------10\7--7------7--8--8-----8-8-10--|
E------------------------------------8-8---------|

G---------------------------------------------------------|
D-----------------------------------------------9~--------|
A-12--12-14~-14-12--10--12~-12-12-10-10\7--7--7------7/8--|
E--------------------------------------------------7------|

G------------------|
D---9-10---9-10~~--|
A-8------8---------|
E------------------|

1st Chorus  (0:51)
G----11------14------11~----14------11---------16------14------14~----14----16----14--|
D-12------12------12-----12------12----12---12------12------14-----14----14----14-----|
A-------------------------------------------------------------------------------------|
E-------------------------------------------------------------------------------------|

G-------------------------------------------------------------------------------|
D--------------------------------------------------9~---------------------------|
A-12-12-12-14~-14-12-12\10--10-12~-12-10-10--7-7-7------7-7/8-8-8------8-8-10/--|
E-----------------------------------------------------7------------8-8----------|

2nd Verse  (1:16)
G----------------------------------------------------------------------------|
D------------------------------------------------------9~-9------------------|
A-12-12-12-14~-14-14-12-12\10-10-10-10-12~-12-10\7-7-7------7--8-------8-10--|
E-----------------------------------------------------------------8~-8-------|

G------------------------------------------|
D----------14~-14--------------12~-12------|
A-12--X-12--------12\10--10-10--------10\--|
E------------------------------------------|

G----------------------------------|
D--------9~-9--------9-10---9-10~--|
A-7--X-7------7/8--8------8--------|
E----------------------------------|

2nd and 3rd Choruses  (1:34, 2:39)
G----11------14------11~----14------11---------16------14------14~----14-16-14----14--|
D-12------12------12-----12------12----12---12------12------14-----14----------14-----|
A-------------------------------------------------------------------------------------|
E-------------------------------------------------------------------------------------|

G----11------14------11~----14------11---------16------14------14~----14-16~-14-----|
D-12------12------12-----12------12----12---12------12------14-----14-----------14--|
A-----------------------------------------------------------------------------------|
E-----------------------------------------------------------------------------------|
[ Tab from: http://www.guitartabs.cc/tabs/r/red_hot_chili_peppers/the_zephyr_song_btab_ver_3.html ]
G----11------14------11~----14----12p11---------16------14------14~----14----14--14------|
D-12------12------12-----12----12-------12---12------12------14-----14----14--------14\--|
A----------------------------------------------------------------------------------------|
E----------------------------------------------------------------------------------------|

G----11------14------14---12---11----------16------14------14~----14---------|
D-12------12---------0--0----0-----12---12------12------14-----14----14~-14--|
A----------------------------------------------------------------------------|
E----------------------------------------------------------------------------|

Guitar Solo  (2:07)
G-14-14-14-14-14~-14-14-----12-12-12-12-12~-12-12-X-X--|
D-14-14-14-14-14~-14-14\12--12-12-12-12-12~-12-12-X-X--|
A------------------------------------------------------|
E------------------------------------------------------|

G-9-9-9-9-9~-9-9/10--10-10-10-10-10~-10-10/14--|
D-9-9-9-9-9~-9-9/10--10-10-10-10-10~-10-10/14--|
A----------------------------------------------|
E----------------------------------------------|

G-14-14-14-14-14~-14-14-14\12-12-12-12-12~-12-12-X-X--|
D-14-14-14-14-14~-14-14-14\12-12-12-12-12~-12-12-X-X--|
A-----------------------------------------------------|
E-----------------------------------------------------|

G-9-9-9-9-9~-9-9/10--10-10-10-10-10~-10-10/14--|
D-9-9-9-9-9~-9-9/10--10-10-10-10-10~-10-10/14--|
A----------------------------------------------|
E----------------------------------------------|

Bridge  (2:23)
G--------------------------------------------------------------------------------------|
D--------------------------------------------------------------------------------------|
A--------------------------------------------------------------------2--2-2------------|
E-5-5-5-5-7-7--7-5-7--5--3-3-3--3-3-3-3-5--5-5-3--3--3-3--0--0-0-0-0--------0--0--0-0--|

G--------------------------------------------------------------------------------------------|
D--------------------------------------------------------------------------------------------|
A--------------------------------------------------------------------------------------------|
E-1--1-1-1-1/5--/13-13-13--13--13\5--5--5-5-5-5-7--7-5--5--5\3--3--3-3-3-3-5--5-5-3--3--3-3--|

G-------------------------------------------|
D-------------------------------------------|
A----------2--2-2---------------------------|
E-0--0-0-0--------0--0--0-0--1--1-1--1~--1--|

(3:08)
G----16------14------14~----14----16-14-----|
D-12------12------14-----14----14-------14--|
A-------------------------------------------|
E-------------------------------------------|

Outro  (3:12)
G----11------14------11~----14------11---------16------14--|
D-12------12------12-----12------12----12---12------12-----|
A----------------------------------------------------------|
E----------------------------------------------------------|

G----14~----14----16----14------11------14------11~----12-11----12-11--|
D-14-----14----14----14------12------12------12-----12-------12--------|
A----------------------------------------------------------------------|
E----------------------------------------------------------------------|

G----16------14------14~----14----16-14---------11------14--|
D-12------12------14-----14----14-------14---12------12-----|
A-----------------------------------------------------------|
E-----------------------------------------------------------|

G----12-12-12-12--11~-12-11--|
D-0--0--0--0--0---0---0--0---|
A----------------------------|
E----------------------------|

G----16------14---------14~----14-14-14-16-14--|
D-12------12------12/14-----14-14-16-14-14-14--|
A----------------------------------------------|
E----------------------------------------------|

G----11------14------11~----12-11----12-11------16------14--|
D-12------12------12-----12-------12---------12------12-----|
A-----------------------------------------------------------|
E-----------------------------------------------------------|

G----14~--------16-14---------|
D-14-----14--14-------14\--0--|
A-----------------------------|
E-----------------------------|
Comments