Red Hot Chili Peppers - The Zephyr Song Chords & Tabs

 

The Zephyr Song Chords & Tabs

Red Hot Chili Peppers Chords & Tabs

Version: 2 Type: Bass Tab 0 ratings
1 star 2 stars 3 stars 4 stars 5 stars
comments

The Zephyr Song Bass Tab

The Zepher Song
Red Hot Chili Peppers
By The Way

tabbed by TomAnthony

Intro
G--------------------------------------------------------------------
D--7-------------5---------------------------------------------------
A------------------------------7------------8------------------------
E--------------------------------------------------------------------

Verse/Verse Bridge

G----------------------------------------------------|---------------
D--7-7--9-9--7---5-5--7-7--5-5-----9----------10---'-|--9-10--9-10---
A------------------------------7-7--7-7----8-8--8-8'-|-8-----8-------
E----------------------------------------------------|---------------
[ Tab from: http://www.guitartabs.cc/tabs/r/red_hot_chili_peppers/the_zephyr_song_btab_ver_2.html ]
Chorus 
pt.1  
   (Fly away ....)
G------11--14--11----14--11--14----------14--16---14--14--16--14-----
D-12-12--12--12----12--12--12--12---17-17--17--17---14--14--14--14---
A--------------------------------------------------------------------
E--------------------------------------------------------------------
Chorus  pt.2
   (In the water....)
G------11--14--11----11--12--11--11------14--16---14--14--16-14------
D-12-12--12--12----12--12--12--12---17-17--17--17---14--14-----17-16-
A--------------------------------------------------------------------
E--------------------------------------------------------------------

End On
G-----------
D----12-----
A-----------
E-----------

 Fin~
Comments