Red Hot Chili Peppers - The Righteous And The Wicked Chords & Tabs

 

The Righteous And The Wicked Chords & Tabs

Red Hot Chili Peppers Chords & Tabs

Version: 3 Type: Bass Tab 0 ratings
1 star 2 stars 3 stars 4 stars 5 stars
comments

The Righteous And The Wicked Bass Tab

   
THE RIGHTEOUS & THE WICKED by the Red Hot Chili Peppers
Bass part by Michael Balzary (Flea)
Tabbed by UtBDan

INTRO:
G------------------------------------|
D-------------------------------2~~~-|
A-0-22-0---0-------0-22-0---0--------|
E--------3---00-0---------3---0------|

G-------------------|
D-------------------|
A-0-22-0---0--------|
E--------3---00-0---|

Wait a few seconds before you...
Repeat x2

VERSE 1:
G------------------------------------|
D-------------------------------2~~~-|
A-0-22-0---0-------0-22-0---0--------|
E--------3---00-0---------3---0------|

G---------------------------------------|
D-------------------------------20-0----|
A-0-22-0---0-------0-22-0---0-----2-20--|
E--------3---00-0---------3---0-------3-|

G------------------------------------|
D-------------------------------2~~~-|
A-0-22-0---0-------0-22-0---0--------|
E--------3---00-0---------3---0------|

G--------------------------------------|
D-------------------------------2~~~---|
A-0-22-0---0-------0-22-0---0----------|
E--------3---00-0---------3---0--------|

CHORUS 1 &2:
G-------------------------------|
D----------------------00-0---2-|
A--2-----2-----2----2-----------|
E-----0-----0-----0-------------|

G-----------------------------|
D---------------------0-0---0-|
A--2-----2-----2---2-------4--|
E-----0-----0-----0-----------|

G-------------------------------|
D----------------------00-0---2-|
A--2-----2-----2----2-----------|
E-----0-----0-----0-------------|

G---------------------------|
D---------------------0-0-0-|
A--2-----2-----2---2--------|
E-----0-----0-----0---------|

POST-CHORUS 1:
G---------------------------------|
D---------------------------------|
A---------------------------------|
E--7---6-5-4---4h5p4-3---3-4-22-2-|

G---------------------------------|
D---------------------------------|
A---------------------------------|
E--7---78-5-4---45-4-3---3-4-22-2-|

G---------------------------------|
D---------------------------------|
A---------------------------------|
E--7---6-5-4---4h5p4-3---3-4-22-2-|

G---------------------------------|
D---------------------------------|
A---------------------------------|
E--7---78-5-4---45-4-3---3-4-22-2-|

VERSE 2:
G------------------------------------|
D-------------------------------2~~~-|
A-0-22-0---0-------0-22-0---0--------|
E--------3---00-0---------3---0------|

G---------------------------------------|
D-------------------------------------2-|
A-0-22-0---0-------0-22-0---0------023--|
E--------3---00-0---------3---0-023-----|

G------------------------------------|
D-------------------------------2~~~-|
A-0-22-0---0-------0-22-0---0--------|
E--------3---00-0---------3---0------|

G--------------------------------------|
D-------------------------------2~~~---|
A-0-22-0---0-------0-22-0---0----------|
E--------3---00-0---------3---0--------|
[ Tab from: http://www.guitartabs.cc/tabs/r/red_hot_chili_peppers/the_righteous_and_the_wicked_btab_ver_3.html ]
POST-CHORUS 2:
G---------------------------------|
D---------------------------------|
A---------------------------------|
E--7---6-5-4---4h5p4-3---3-4-22-2-|

G---------------------------------|
D---------------------------------|
A---------------------------------|
E--7---78-5-4---45-4-3---3-4-22-2-|

G-------------------------------------|
D-0-1-0-----0-1-0-----0-1-0-----------|
A-------2---------2---------2-------0-|
E-----------------------------2-1-2---|

G-------------------------------------|
D-0-1-0-----0-1-0-----0-1-0-----------|
A-------2---------2---------2-------0-|
E-----------------------------2-1-2---|

G-------------------------------------|
D-0-1-0-----0-1-0-----0-1-0-----------|
A-------2---------2---------2-------0-|
E-----------------------------2-1-2---|

G-------------------------------------|
D-0-1-0-----0-1-0-----0-1-0-----------|
A-------2---------2---------2-------0-|
E-----------------------------2-1-2---|

G-------------------------------------|
D-2-3-2-----2-3-2-----2-3-2-----------|
A-------4---------4---------4-------2-|
E-----------------------------4-3-4---|

G-------------------------------------|
D-2-3-2-----2-3-2-----2-3-2-----------|
A-------4---------4---------4-------2-|
E-----------------------------4-3-4---|

G-------------------------------------|
D-0-1-0-----0-1-0-----0-1-0-----------|
A-------2---------2---------2-------0-|
E-----------------------------2-1-2---|

G-------------------------------------------------|
D-0-1-0-----0-1-0-----0-1-0-----------------------|
A-------2---------2---------2---------------------|
E-----------------------------2-----0~~~~~~~~//19-|

VERSE 3:
G------------------------------------|
D-------------------------------2~~~-|
A-0-22-0---0-------0-22-0---0--------|
E--------3---00-0---------3---0------|

G---------------------------------------|
D-------------------------------20-0----|
A-0-22-0---0-------0-22-0---0-----3-20~-|
E--------3---00-0---------3---0---------|

G------------------------------------|
D-------------------------------2~~~-|
A-0-22-0---0-------0-22-0---0--------|
E--------3---00-0---------3---0------|

G--------------------------------------|
D-------------------------------2~~~---|
A-0-22-0---0-------0-22-0---0----------|
E--------3---00-0---------3---0--------|

CHORUS 3:
G-------------------------------|
D----------------------00-0---2-|
A--2-----2-----2----2-----------|
E-----0-----0-----0-------------|

G-----------------------------|
D---------------------0-0---0-|
A--2-----2-----2---2-------4--|
E-----0-----0-----0-----------|

G-------------------------------|
D----------------------00-0---2-|
A--2-----2-----2----2-----------|
E-----0-----0-----0-------------|

G--------------------------------------------------------|
D---------------------0-0-0-0-0-0-0-0-0-0-0-0-0-0-0-0-0--|
A--2-----2-----2---2-------------------------------------|
E-----0-----0-----0--------------------------------------|

G------|
D------|
A------|
E-0~~~-
Comments