Red Hot Chili Peppers - The Greatest Hits (album) Chords & Tabs

 

The Greatest Hits (album) Chords & Tabs

Red Hot Chili Peppers Chords & Tabs

Version: 1 Type: Tab 6 ratings
1 star 2 stars 3 stars 4 stars 5 stars
comments

The Greatest Hits (album) Tab

   
This the tab for all of the Red Hot Chili Peppers Greatest Hits Album

First of all the songs
1.Under the bridge
2.Give it away
3.Californication
4.Scar Tissue
5.Soul Too Squeeze
6.Otherside
7.Suck my kiss
8.By the way
9.Parallel Universe
10.Breaking the girl
11.My friends
12.Higher Ground
13.Universally Speaking
14.Road Trippin'
15.Fortune Faded
16.Save the Population


1.Under the bridge

Intro:

------------------------------------|--------------------------------|--
---3-----------3--------------------|-2------------------------------|--
---------2--------2-----------------|-------------3------------------|--
------4-----4-----------------------|-------4--------4---4--2--0-----|--
---5-----------------4--2--0--------|----4-----4------------------2--|--
------------------------------4-----|-2------------------------------|--

------------------------------------|--------------------------------|--
--3----------------3h5p3------------|--------------------------------|--
-------------2------------2---------|-------------3------------------|--
-------4--------4------------4/6-6--|-------4--------4---4--2--0-----|--
--4h5-----5------------------5/7-7--|----4-----4------------------2--|--
------------------------------------|-2------------------------------|--

------------------------------------|--------------------------------|--
--3----------------3----------------|-2------------------------------|--
-------------2--------2-------------|-------------3------------------|--
-------4--------4-------------------|-------4--------4---4--2--0-----|--
--4h5-----5--------------4--2--0----|----4-----4------------------2--|--
----------------------------------4-|-2------------------------------|--

-----------------------------------|------------------------------------
--3----------------3h5p3-----------|------------------------------------
-------------2------------2--------|-------------3----------3-----------
-------4--------4------------4/6-6-|-------4---------4---------4--------
--4h5-----5------------------5/7-7-|----4-----4---------4---------4/----
-----------------------------------|-2----------------------------------

0:28:verse 1


------------------------|----------------------------|-----------------|--
-----9---------7--------|---------9-------4------5---|---9---------7---|--
-----9---------8--------|---------9-------4------6---|---9---------8---|--
-----9---------9--------|---9/11--11------6------7---|---9---------9---|--
-----7------------------|---------11-----------------|---7-------------|--
------------------------|---7/9----------------------|-----------------|--

------------------|-------------------|-------------------------|---------
--9---------5-----|--9---------7------|--9-------4------5-------|--9------
--9---------6-----|--9---------8------|--9-------4------6-------|--9------
--11--------7-----|--9---------9------|--11------6------7-------|--9------
------------------|--7----------------|-------------------------|--7------
--9---------5-----|------------7------|--9-------4------5-------|---------

-------|------------------------|-----------------------------------------
--7----|----9---------5---------|---9~------------------------------------
--8----|----9---------6---------|---8~------------------------------------
--9----|----11--------7---------|---9~------------------------------------
-------|------------------------|---7~------------------------------------
--7----|----9---------5---------|-----------------------------------------

0:57:verse 2

------------------------------------|---------------------------5h7p5-----
-9----9----7----7------7---------7--|-------9------9--------------------5-
-9----9----8----8------8h9p8-----8--|-------9------9---4----6-----------6-
-9----9----9----9-------------9-----|-9/11-----11------6----7-----------7-
-7------------------9---------9-----|-9/11-----11------6----7-------------
-----------7------------------------|------------------4----5-------------

------------------------------------|---------------------------5---------
-9----9----7----7------7---------7--|--------9------9---------------5-----
-9----9----8----8------8h9p8-----8--|--------9------9----6--------------6-
-9----9----9----9-------------9-----|-9/11------11-------7----------------
-7------------------9---------9-----|-9/11------11-------7----------------
-----------7------------------------|--------------------5----------------


------------------------------------|---------------------------5h7p5-----
-9----9----7----7------7---------7--|-------9------9--------------------5-
-9----9----8----8------8h9p8-----8--|-------9------9---4----6-----------6-
-9----9----9----9-------------9-----|-9/11-----11------6----7-----------7-
-7------------------9---------9-----|-9/11-----11------6----7-------------
-----------7------------------------|------------------4----5-------------

------------------------------------|--------------------5----------------
-9----9----7----7-------7-----------|-------9-----------------5-----------
-9----9----8----8-------8-----------|-------9------6----------------------
-9----9----9----9------------9------|-9/11---------7----------------------
-7------------------9--------9------|-9/11---------7----------------------
-----------7------------------------|--------------5----------------------

------------------------------------|
--9~--------------------------------|
--8~--------------------------------|
--9~--------------------------------|
--7~--------------------------------|
------------------------------------|

1:26:chorus

-----------------------------|-11--11--11--11-----9-------9----9----x--x---
-10-------9----9------9------|-12--12--12--12-----10------10---10---x--x---
-11-------9----9------9------|-11--11--11--11-----11------11---11---x--x---
-11-------9----9------9------|-9---9---9---9------11-----------------------
-9--------7----7------7------|--------------------9------------------------
-----------------------------|---------------------------------------------

-x--x---------------------------|-11--11--11--11----9-------9----9----x--x-
-x--x--10----9----9------9------|-12--12--12--12----10------10---10---x--x-
-x--x--11----9----9------9------|-11--11--11--11----11------11---11---x--x-
-------11----9----9------9------|-9---9---9---9-----11---------------------
-------9-----7----7------7------|-------------------9----------------------
--------------------------------|------------------------------------------
                                                                           x3

------------------------------------|---------------------------5h7p5------
-9----9----------7------7h9p7-----7-|-------9------9--------------------5--
-9----9----7h8---8------8---------8-|-------9------9---4----6-----------6--
-9----9----------9---9---------9----|-9/11-----11------6----7-----------7--
-7----------------------------------|-9/11-----11------6----7--------------
------------------------------------|------------------4----5--------------

------------------------------------|---------------------------5----------
-9----9----7----7------7---------7--|--------9------9---------------5------
-9----9----8----8------8h9p8-----8--|--------9------9----6--------------6--
-9----9----9----9-------------9-----|-9/11------11-------7-----------------
-7------------------9---------9-----|-9/11------11-------7-----------------
-----------7------------------------|--------------------5-----------------

2:51:bridge 1

--0-----------0-------------|--0-------0--------0---------0----------------
--5-----------5-------------|--3-------3--------0---------1----------------
--6-----------5-------------|--4-------4--------2---------2----------------
--7-----------7-------------|--5-------5--------3---------3----------------
--7-----------7-------------|--5-------5--------3---------3----------------
--5-----------5-------------|--3-------3--------1---------1----------------
                                                                          x3

-12-12-12-12-12-12-12-12-12-12-12-12-12-12-12-12-|-10-10-10-10-10-10-10-10-
-10-10-10-10-10-10-10-10-10-10-10-10-10-10-10-10-|-9--9--9--9--9--9--9--9--
-10-10-10-10-10-10-10-10-10-10-10-10-10-10-10-10-|-9--9--9--9--9--9--9--9--
-10-10-10-10-10-10-10-10-10-10-10-10-10-10-10-10-|-9--9--9--9--9--9--9--9--
-8--8--8--8--8--8--8--8--8--8--8--8--8--8--8--8--|-7--7--7--7--7--7--7--7--
-------------------------------------------------|-------------------------

-14-14-14-14-14-14-14-14----
-12-12-12-12-12-12-12-12----
-12-12-12-12-12-12-12-12----
-12-12-12-12-12-12-12-12----
-10-10-10-10-10-10-10-10----
----------------------------

3:13:bridge 2


--0----------0------------|-0-------0---------0------------------------------
--5----------5------------|-3-------3---------1------------------------------
--6----------5------------|-4-------4---------2------------------------------
--7----------7------------|-5-------5---------3----------5-------------------
--7----------7------------|-5-------5---------3----5--7-------7--5-----------
--5----------5------------|-3-------3---------1------------------------------

--0----------0------------|-0-------0---------0-----------------------|------
--5----------5------------|-3-------3---------1-----------------------|------
--6----------5------------|-4-------4---------2-----------------------|------
--7----------7------------|-5-------5---------3----------5------------|-7/14-
--7----------7------------|-5-------5---------3----5--7-------7--5--7-|------
--5----------5------------|-3-------3---------1-----------------------|------
                                                                     x3   

3:57:outro

--0---0---0---0-------0---0---x---x--|--0---0-----0-----------0------------
--5---5---5---5-------5---5---x---x--|--3---3-----0----0h1---------1-------
--6---6---6---5-------5---5---x---x--|--4---4-----2------------------------
--7-------7--------------------------|------------3------------------------
--7-------7--------------------------|-------------------------------------
--5----------------------------------|-------------------------------------

--0---0-----------0-----0--3p0-----0-|-0---0--x--x-------------------------
--5------5---5-------5----------5----|-3---3--x--x--0-----1------1h3p1-----
--6------6---5-----------------------|-4---4--x--x--2--------2----------2--
--7----------7-----------------------|-5-----------------------------------
--7----------7-----------------------|-5-----------------------------------
--5----------------------------------|-------------------------------------

--0---0-----------------------3p0----|--0---0--------------0-------0-------
--5---5---x--x--5-----5---x--------5-|--3---3---3---0----------0--------0--
--6---6---x--x--5-----5---x----------|--4-------4---2-------------------2--
--7-------------7--------------------|--5-------------------------------3--
--7-------------7--------------------|--5-------------------------------3--
-------------------------------------|-------------------------------------

--0---0---------0----------------|----------------------------|------------
--5---5----5-------5--5----------|--0---3------0----h1--------|---2--------
--6---6----5-------5--5h7p5------|--4------4---2--------2-----|---2--------
--7---7----7-----------------7---|--5------5---3--------------|---2--------
--7--------7---------------------|----------------------------|---0--------
---------------------------------|----------------------------|------------

_____________________________________________________________________________________
2.Give it away

e|---------------------------|------11----------11----------11----------11----------11----------|
B|------------13-------------|-(13)-------------------------------------------------------------|
G|------------11B12----------|-(12)----(b)12r11----(b)12r11----(b)12r11----(b)12r11----(b)12r11-|
D|-7--7-7-7------------------|------------------------------------------------------------------|
A|-0--0-0-0-0----------------|------------------------------------------------------------------|
E|---------------------------|------------------------------------------------------------------|


e|---------------------------|--------------------------------|
B|------------13-------------|--------------------------------|
G|------------11B12----------|--------------------------------|
D|-7--7-7-7------------------|-5-5---5-5---5-5---5-5---5-5----|
A|-0--0-0-0-0----------------|-----3-----4-----4-----4-----4--|
E|---------------------------|--------------------------------|

Verse
-----

     Riff A

e|---------------------------------|------------------------|------------------------------|
B|*--------------------------------|------------------5-----|------------------------------|
G|--------7--6--5b5.5--------------|------------7--8--------|------7--6--5b5.5-------------|
D|--7--------------------5---5---5-|-7-------7--------------|-7-------------------5-----5--|
A|*-0------------------------------|------------------------|-0----------------------------|
E|---------------------------------|------------------------|------------------------------|

                   End Riff A
   .
   e  Q   e  e  e   e  q
e|--------------------------|
B|--------------------------|
G|--------------------------|
D|-----------7--5b5.5-------|
A|-7------7------------5----|
E|--------------------------|

then:

Gtr. 1: w. Riff A, 1 1/2 times, simile

then:

Gtr. 1

e|------------------------------|-----------------------------|
B|------------------------------|-----------------------------|
G|------7--6--5b5.5-------------|------------7--5b5.5---------|
D|-7-------------------5-----5--|-7-------7------------7P5----|
A|-0----------------------------|-0-------0------------0------|
E|------------------------------|-----------------------------|

Chorus
------
Two Gtrs. arr. for one.

e|---------------------------------|-----------------8---------7--7\5-|
B|---------------------------------|-----------------8-7B8r7---7--7\5-|
G|---------------------------------|-------------------7B8r7----------|
D|-7-7-7-7-7-7-7-7-7-7-7-7-7-7-7-7-|-7-7-7-7-7-7-7-7------------------|
A|-0-0-0-0-0-0-0-0-0-0-0-0-0-0-0-0-|-0-0-0-0-0-0-0-0---------0--------|
E|---------------------------------|----------------------------------|

                                    ________________________________________
                                   |1.                                      |
                                   |                                        |
 
e|---------------------------------|-------------5------5-------5-5-----5--||
B|---------------------------------|-------------5------------5-5-5-----5-*||
G|---------------------------------|---------------7B9----7B9-------7B9----||
D|-7-7-7-7-7-7-7-7-7-7-7-7-7-7-7-7-|-7-7-7-7-7-7---------------------------||
A|-0-0-0-0-0-0-0-0-0-0-0-0-0-0-0-0-|-0-0-0-0-0-0--------------------------*||
E|---------------------------------|---------------------------------------||

  _______________________________________________________________
 |2.
 |

e|---------16--------------------------17-------17-------17-17\--|-------------------|
B|-----/16----16-----16----16----17-------17-------17-------17\--|-------------------|
G|-------------------18B20-18B20-19B21----19B21----19B21---------|-------------------|
D|-7-------------------------------------------------------------|-7--7--------------|
A|-0-0-----------{0}---------------------------------------------|-0-----------------|
E|---------------------------------------------------------------|-------------------|

then:

Gtr. 1 tacet

then one bar before Guitar Solo:

Gtr. 2
w/ slight dist.
Backwards gtr.


e|--------------------|
B|--------------------|
G|--------------------|
D|-------------14-----|
A|--------------------|
E|--------------------|

Guitar Solo
-----------
Gtr. 2

e|-----------------------|
B|-----------------------|
G|-----------------------|
D|-14-----12---14--------|
A|-----------------------|
E|-----------------------|

Gtr. 1

   Rhy. Fig. 1       End Rhy. Fig. 1

e|---------------------------------|
B|---------------------------------|
G|-9-9-9-9-9-9-9-9-9-9-9-9-9-9-9-9-|
D|-x-x-x-x-x-x-x-x-x-x-x-x-x-x-x-x-|
A|-7-7-7-7-7-7-7-7-7-7-7-7-7-7-7-7-|
e|-0-0-0-0-0-0-0-0-0-0-0-0-0-0-0-0-|

Gtr. 2

   Gtr. 1: w/ Rhy. Fig. 1, 6 times

e|-------------------------|-------------------------|-------------------------|
B|-------------------------|-------------------------|-------------------------|
G|-11----12----------------|------12--------14---15--|-(15)-14----12-------14--|
D|------------14-----12----|-14----------------------|-------------------------|
A|-------------------------|-------------------------|-------------------------|
E|-------------------------|-------------------------|-------------------------|


e|-----------------------|-----------------------|------------------12----12--|
B|-12--------------------|-14------12----15------|-(15)-14---15---------------|
G|------15---14----------|-----------------------|----------------------------|
D|-----------------------|-----------------------|----------------------------|
A|-----------------------|-----------------------|----------------------------|
E|-----------------------|-----------------------|----------------------------|

Gtr. 2

   Bm Bbm Am Abm Gm F#m Fm Em Ebm Dm C#m Cm

e|-(12)-----------------------------------|
B|----------------------------------------|
G|----------------------7B9--------r7-----|
D|----------------------------------------|
A|----------------------------------------|
E|----------------------------------------|

Gtr. 1

   Bm          Bbm         Am          Abm   Gm    F#m      Fm       Em       Ebm   Dm    C#m Cm

e|-19-19-19-19-18-18-18-18-17-17-17-17-16-16-15-15-14-14-14-13-13-13-12-12-12-11-11-10-10-9-9-8-|
B|-19-19-19-19-18-18-18-18-17-17-17-17-16-16-15-15-14-14-14-13-13-13-12-12-12-11-11-10-10-9-9-8-|
G|-19-19-19-19-18-18-18-18-17-17-17-17-16-16-15-15-14-14-14-13-13-13-12-12-12-11-11-10-10-9-9-8-|
D|----------------------------------------------------------------------------------------------|
A|----------------------------------------------------------------------------------------------|
E|----------------------------------------------------------------------------------------------|

then play Verse

then:

Gtr. 1

   A5

e|-------------------|
B|-------------------|
G|-2-----------------|
D|-2-----------------|
A|-0-----------------|
E|-0-----------------|

then:

Gtr. 1 tacet

then one bar before Guitar Solo:

Gtr. 2

e|--------------------|
B|--------------------|
G|--------------------|
D|--------------------|
A|---------------10---|
E|--------------------|

Guitar Solo
-----------

   Gtr. 1: w/ Rhy. Fig. 1, 4 times

e|--------------------------------|----------------------------------------------|
B|--------------------------------|----------------------------------------------|
G|-------------------12-----14bbb-|-15--(b)15bb16rrrr15rr14-12B14-(14)r12--12B14-|
D|-----_----12---14---------------|----------------------------------------------|
A|-(10)/12------------------------|----------------------------------------------|
E|--------------------------------|----------------------------------------------|


e|------------------------------------------|---------------------------------|
B|------------------------------------------|---------------------------------|
G|-r12---14-(14-16)14---------(12-14)12-----|---------------------------------|
D|------------------------------------------|-14-12---12-(12-14)12------------|
A|------------------------------------------|---------------------------------|
E|------------------------------------------|---------------------------------|

then play Verse

then:

Out-Chorus
----------
Gtr. 1

   N.C.(A5)                                                  Am            Cm
                                      .

e|--------------------------------------------|-------------/17--17-17----/20-20-20-20-20\--|
B|-------------13------13------13-----13---\--|-------------/17--17-17----/20-20-20-20-20\--|
G|-------------11B12---11B12---11B12--11B12\--|-------------/17--17-17-17-/20-20-20-20-20\--|
D|-7-7-7-7-7----------------------------------|-7--7-7-5H7----------------------------------|
A|-0-0-0-0-0-0--------------------------------|-0--0-0-0------------------------------------|
E|--------------------------------------------|---------------------------------------------|

   N.C.(A5)                                            Am          Cm

e|---------------------------------------|----------17-17-17-17-17-20-20-20-20----|
B|-----------13------13------13----------|-------------17-17-17-17-20-20-20-20----|
G|-----------11B12---11B12---11B--(b)11--|-------------17-17-17-17-20-20-20-20----|
D|-7--7-7-7------------------------------|-7--7-7---------------------------------|
A|-0--0-0-0------------------------------|-0--0-0-0----------------------------0--|
E|---------------------------------------|----------------------------------------|

   N.C.(A5)                                            Am          Cm

e|---------------------------------------|----------17-17-17-17-17-20-20-20-20----|
B|-----------13------13------13----------|-------------17-17-17-17-20-20-20-20----|
G|-----------11B12---11B12---11B--(b)11--|-------------17-17-17-17-20-20-20-20----|
D|-7--7-7-7------------------------------|-7--7-7---------------------------------|
A|-0--0-0-0------------------------------|-0--0-0-0----------------------------0--|
E|---------------------------------------|----------------------------------------|

  N.C.(A5)

e|------------------------------------------------------|
B|-------------13----13-----13----13-----13-----13---\--|
G|-------------11B12-11B12--11B12-11B12--11B12--11B12\--|
D|-7-7-7-7-7--------------------------------------------|
A|-0-0-0-0-0-0------------------------------------------|
E|------------------------------------------------------|

                Am            Cm                 N.C.(A5)

 
e|-------------/17--17-17----/20-20-20-20-20\--|----x-x-----------------|---------------------|
B|-------------/17--17-17----/20-20-20-20-20\--|----x-x-----------------|---------------------|
G|-------------/17--17-17-17-/20-20-20-20-20\--|----x-x-7--6--5~~~~~~~~-|-(5)~~~~~~~~~~~~~~~~-|
D|-7--7-7-5H7----------------------------------|-7----------------------|---------------------|
A|-0--0-0-0------------------------------------|-0----------------------|---------------------|
E|---------------------------------------------|------------------------|---------------------|

e|----x-x-----------------|-----------------------|----x-x-10--9--8--------|
B|----x-x-----------------|-----------------------|----x-x-x---x--x--------|
G|----x-x-7--6---5~~~~~~~-|-(5)~~~~~~~~~~~~-------|----x-x-7---6--5--------|
D|-7----------------------|-----------------------|-7----------------------|
A|-0----------------------|-----------------------|-0----------------------|
E|------------------------|--------------------0--|------------------------|

e|-(8)-----------------|----x-x-10--9------------|----------------------------|
B|-(x)-----------------|----x-x-x---x------------|-------------8----8-8---8---|
G|-(5)-----------------|----x-x-7---6---5~~~~~~~-|-(5)~~~~~~~~----5-----5---x-|
D|---------------------|-7-----------------------|----------------------------|
A|---------------------|-0-----------------------|----------------------------|
E|---------------------|-------------------------|----------------------------|

Gtr. 1

   A5      D5 Db5 C5               D5Db5C5

e|--------------------|---------------------------------|
B|--------------------|--------_------------------------|
G|--------------------|------17\16---14-17--17---17-17--|
D|------7-------------|------17\16---14-17--17---17-17--|
A|--------------------|---------------------------------|
E|--------------------|---------------------------------|

Gtr. 3 (dist.)
f

   A5        D5Db5 C5              A5        D5Db5 C5


e|-------x-x---------------------|-------x-x------------------------|
B|-------x-x--_------------------|-------x-x--_---------------------|
G|-2--2--x-x-7\6---5--5-5-5------|-2--2--x-x-7\6---5--5--/17-17-17--|
D|-2--2--x-x-7\6---5--5-5-5------|-2--2--x-x-7\6---5--5--/17-17-17--|
A|-0--0----------------------0-0-|-0--0-----------------------------|
E|---------------------------0-0-|----------------------------------|

Gtr. 1

   A5       D5 Db5 C5 D5 A5              D5 Db5 C5

e|----0----------------|-20-20---20-20---20-20----20-20---20-20----|
B|---------------------|-20-20---20-20---20-20----20-20---20-20----|
G|-17------------------|-20-20---20-20---20-20----20-20---20-20----|
D|-17------------------|-------------------------------------------|
A|---------------------|-------------------------------------------|
E|---------------------|-------------------------------------------|

Gtr. 3

   A5        D5Db5 C5         D5   A5        D5Db5 C5

e|-------x-x---------------------|---------x---------x-x-x-x-x-----|
B|-------x-x--_------------------|---------x--_------x-x-x-x-x-----|
G|-2--2--x-x-7\6---5--5-5-5--/7--|-2--2--2-x-7\6---5-x-x-x-x-x-----|
D|-2--2--x-x-7\6---5--5-5-5--/7--|-2--2--2-x-7\6---5-x-x-x-x-x-----|
A|-0--0--------------------------|-0--0--0---------------------0-0-|
E|-------------------------------|-----------------------------0-0-|

Gtr. 1

   A5           D5 Db5 C5 A5              D5 Db5 C5

e|-20\17----------------|-20-20---20-20---20-20----20-20---20-20----|
B|-20\17----------------|-20-20---20-20---20-20----20-20---20-20----|
G|-20\17----------------|-20-20---20-20---20-20----20-20---20-20----|
D|----------------------|-------------------------------------------|
A|----------------------|-------------------------------------------|
E|----------------------|-------------------------------------------|

Gtr. 3

   A5        D5Db5 C5               A5       D5Db5 C5

e|-------x-x------------x-x-x-x---|---------------------------------|
B|-------x-x--_---------x-x-x-x---|-----------_---------------------|
G|-2--2--x-x-7\6---5--5-x-x-x-x---|-2--2--2--7\6---5-----/17-17-17--|
D|-2--2--x-x-7\6---5--5-x-x-x-x---|-2--2--2--7\6---5-----/17-17-17--|
A|-0--0-------------------------0-|-0--0--0-----------0-------------|
E|------------------------------0-|-------------------0-------------|

Gtr. 1
                D5 Db5 C5 A5          D5 Db5 C5
                          tr~~~~~~~~~~~~~~~~~~~

e|-20\17----------------|-----------------------|
B|-20\17----------------|-----------------------|
G|-20\17----------------|-----------------------|
D|----------------------|-(5-7)5----------------|
A|----------------------|-----------------------|
E|----------------------|-----------------------|

Gtr. 3
   A5       D5Db5 C5                A5      D5  Db5 C5
e|------x-x-------------------x-x-|-----------------------------------|
B|------x-x--_----------------x-x-|------------_----------------------|
G|-2--2-x-x-7\6---5--5-5------x-x-|-2--2--2-7-7\6---5--5-5-5----------|
D|-2--2-x-x-7\6---5--5-5------x-x-|-2--2--2-7-7\6---5--5-5-5----------|
A|-0--0---------------------------|-0--0--0---------------------------|
E|-----------------------3B4------|---------------------------3b3.5-0-|

Gtr. 1

   A5                     N.C.(Am)      A5           Am

e|------------------------------------|--------------5-----|------------------||
B|------------------------------------|--------------5-----|------------------||
G|----------5-----5-----5-(5)---------|--------------5-----|------------------||
D|-5H7--5h7---5h7---5h7---------------|--------------------|------------------||
A|------------------------------------|--------------------|------------------||
E|------------------------------------|--------------------|------------------||

Gtr. 3

   A5           N.C.(Am)              A5           Am

e|----------------------------------|-----------------15\--|------------------||
B|------------1-(1)-----1-----------|----------------------|------------------||
G|-2--2--2--2--------2-----2-----2--|-2--------------------|------------------||
D|-2--2--2--2-----------------2-----|-2--------------------|------------------||
A|-0--0--0--0-----------------------|-0--------------------|------------------||
E|----------------------------------|----------------------|------------------||
              let ring - - - - - - |
_____________________________________________________________________________________
3.Californication

Fmaj7:133210
C:332010
G7:320001
Dm:XX0231
Am:x02210

*Intro*

-----------------------------------------------------------
--------0--1-----------------------------------------------
-------------------------------0---2-----------------------
-----2--------0--0h2p0-----------------0-------------------
--0------------------------3---------------3---------------
------------------------1----------------------------------



----------------------------------------------------------1-
--------5-------------------------------------------------3-
------------------------4---------------2----------3------2-
----5-----5------------------------------------0----------0-
-3------------------5-------5-------3------3----------------
---------------3----------------1---------------------------


verse:

Am    Fmaj7

Chorus:

C    G7     Dm     Am


solo

------9------------------------9----------------------------
--10----------------------10--------------------------------
----------11^11~~------------------11^11~~----11------------
------------------------------------------------------------
------------------------------------------------------------
------------------------------------------------------------

------------------------------------------------------------
------------------------------------------------------------
--11--11--11---11p9-----------------9--11^11--9h11----------
---------------------11--9---11---------------------11~~----
------------------------------------------------------------
------------------------------------------------------------

-------9---12---14~~---------------9---12---14^---14~~~------
--10---------------------------10---------------------------
------------------------------------------------------------
------------------------------------------------------------
------------------------------------------------------------
------------------------------------------------------------

---17---16---14--------14-----------------------------------
------------------17--------17---14---17---14---14^---14^---
------------------------------------------------16----16----
------------------------------------------------------------
------------------------------------------------------------
------------------------------------------------------------

--------------------------14^14~~--12------12---------------
--14^----17---14~~---------------------14------14---12------
--i6--------------------------------------------------------
------------------------------------------------------------
------------------------------------------------------------
------------------------------------------------------------

--------12----10----9---------------------------------------
---10-------------------10----------------------------------
------------------------------------------------------------
------------------------------------------------------------
------------------------------------------------------------
------------------------------------------------------------
________________________________________________________________________________
4.Scar Tissue

-----------------------------------------------------------------------
---10---10---10----10--------------------------------------------------
-----------------------9-9-/-10-10----10----10----10/9-----------------
-----------------------------------------------------------------------
-8----8----8----8------------------------------------------------------
-----------------------8-8-/-10----10----10----10-------8--------------

-----------------------------------------------------------------------
---10---10---10----10-----8--------------------------------------------
-----------------------------9-/-10-------12p10-12p10------------------
-----------------------------------------------------------------------
-8----8----8----8------8-----------------------------------------------
-----------------------------8-/-10------------------------------------

-----------------------------------------------------------------------
---10---10---10----10--------------------------------------------------
-----------------------9-9-/-10-10----10----10----10/9-----------------
-----------------------------------------------------------------------
-8----8----8----8------------------------------------------------------
-----------------------8-8-/-10----10----10----10-------8--------------


------------------8---------------------------------------------------
---10---10---10-------8-8-/-10-----------10---------------------------
---------------------------------------------12--10--9----------------
----------------------------------------------------------------------
-8----8----8----------8-8-/--8----------------------------------------
---------------------------------10--10-------------------------------

Chorus: Fmaj7 C Dm C (in this the C is played one as a transition between
Fmaj7 and Dm)

-----------------------------------------------------------------------
---10---10---10---10---------------------------------------------------
----------------------9-9-/-10-10----10----10----10/9------------------
-----------------------------------------------------------------------
-8----8----8----8------------------------------------------------------
----------------------8-8-/-10----10----10----10-------8---------------

-------------------10--8-----------------13-12-10----------------------
---10---10---10-----------8-8-/-10-10-------------13-------------------
-----------------------------------------------------------------------
-----------------------------------------------------------------------
-8----8----8----8---------7-7-/--8----8--------------------------------
-----------------------------------------------------------------------

Chorus: Fmaj7 C Dm C 

-----------------------------------------------------------------------
--13/10--10--10/8--8--8/10--10--10/12-12/13--13------------------------
-----------------------------------------------------------------------
-----------------------------------------------------------------------
-----------------------------------------------------------------------
-----------------------------------------------------------------------

-----------------------------------------------------------------------
---10---10---10----10--8-----------------------------------------------
--------------------------9-/-10--12p10-12p10--------------------------
-----------------------------------------------------------------------
-8----8----8----8------7-----------------------------------------------
--------------------------8-/-10---------------------------------------

------------------10---------------------------------------------------
---10---10---10-------8-8-/-10-10--12-13-12-10------------------------
-----------------------------------------------------------------------
-----------------------------------------------------------------------
-8----8----8----8-----7-7-/--8--8--------------------------------------
-----------------------------------------------------------------------

Chorus: Fmaj7 C Dm C 

-----------------------------------------------------------------------
---10---10---10---10---------------------------------------------------
-----------------------9-9-/-10-10----10----10----10/9-----------------
-----------------------------------------------------------------------
-8----8----8----8------------------------------------------------------
-----------------------8-8-/-10----10----10----10-------8--------------

------------------10-----------------13-12-10-8------------------------
---10---10---10-------8-8-/-10-10--------------------------------------
-----------------------------------------------------------------------
-----------------------------------------------------------------------
-8----8----8----8-----7-7-/--8----8------------------------------------
-----------------------------------------------------------------------

Chorus: Fmaj7 C Dm C 

Solo
-----------------------------------------------------------------------
-13/15--15/13--13/10--10/8--8--13/10--13/15--17--13/10--10--13/8--8----
-----------------------------------------------------------------------
-----------------------------------------------------------------------
-----------------------------------------------------------------------
-----------------------------------------------------------------------

-----------------------------------------------------------------------
13/10--10--15/17--17/18--18--------------------------------------------
-----------------------------------------------------------------------
-----------------------------------------------------------------------
-----------------------------------------------------------------------
-----------------------------------------------------------------------

-----------------------------------------------------------------------
---10---10---10----10--------------------------------------------------
-----------------------9-9-/-10-10----10----10----10/9-----------------
-----------------------------------------------------------------------
-8----8----8----8------------------------------------------------------
-----------------------8-8-/-10----10----10----10-------8--------------

------------------10---------------------------------------------------
---10---10---10-------8-8-/-10-10----10-8------------------------------
------------------------------------------10-9-------------------------
-----------------------------------------------------------------------
-8----8----8----8-----7-7-/--8----8------------------------------------
-----------------------------------------------------------------------

Chorus: Fmaj7 C Dm C 

-17---17/15---15---15/17/12---12/13/10---10----------------------------
----------------------------------------------13/15---15/13---13/15----
-----------------------------------------------------------------------
-----------------------------------------------------------------------
-----------------------------------------------------------------------
-----------------------------------------------------------------------

-----------------------------------------------------------------------
15/13/10---13/8---13/10----10-10-10-10-10-------------------10-10-10---
------------------------7~----------------7~--5/7/5--5/7---------------
----------------------------------------------------------7------------
-----------------------------------------------------------------------
-----------------------------------------------------------------------

---13/12-12------------------------------------------------------------
-------------13h15-13~/15-15/10---13/15/8--10--------------------------
-----------------------------------------------------------------------
-----------------------------------------------------------------------
-----------------------------------------------------------------------
-----------------------------------------------------------------------
_________________________________________________________________________________
5.soul to squeeze

Intro:
e:----------------------------------|
B:----------------------------------|
G:------2-----4b54p2-------------2--|
D:---2----------------------2h4-----|
A:0--------0----------0--0----------|
E:----------------------------------|

            

e:-----------------------------------------|
B:------------------------------5----------|
G:-------2-----------2-----4/6-----6\4--2--|
D:----2--------2---------------------------|
A:-0--------0-----0-----0------------------|
E:-----------------------------------------|

                                        

e:-----------------------------------|--------------------------------|
B:-----------------------------------|--------------------------------|
G:--------2-----4b5p2-------------2--|--------2-----------------------|
D:-----2---------------------2h4-----|-----2--------2-----2-----0-----|
A:--0--------0---------0--0----------|--0--------0-----0--------------|
E:-----------------------------------|-----------------------3-----3--|

                                        

e:-----------------------------------|
B:-----------------------------------|
G:--------2-----4b5p2-------------2--|
D:-----2---------------------2h4-----|
A:--0--------0---------0--0----------|
E:-----------------------------------|
                                        


e:----------------------------------------|
B:-------------------------------5--------|
G:--------2-----------2-----4/6-----6p4p2-|
D:-----2--------2-------------------------|
A:--0--------0-----0-----0----------------|
E:----------------------------------------|
                                                                             


e:----------------------------------|
B:----------------------------------|
G:--------2-----4b5p2-------------2-|
D:-----2---------------------2h4----|
A:--0--------0---------0--0---------|
E:----------------------------------|
                                        

Ok, now play these notes with a slide, over this progression:
f C Dm Dm f C Gm7 f C Dm Dm f C Gm7


e:---------------------------|--------------------------------|
B:---8/10------8/10----------|---13/15------15\13-------------|
G:---------------------------|----------------------------14--|
D:---------------------------|--------------------------------|
A:---------------------------|--------------------------------|
E:---------------------------|--------------------------------|



e:-----------------|----------------|--------------|-----------------|
B:-------13--------|----------------|-----------13-|-----------13/15-|
G:-----------14----|-10-------------|--12/14-------|--14-------------|
D:-----------------|----------------|--------------|-----------------|
A:-----------------|----------------|--------------|-----------------|
E:-----------------|----------------|--------------|-----------------|



e:-------------------------|-----------------|
B:--------13/15---------13-|-----------------|
G:-------------------------|--------------14-|
D:-------------------------|-----------------|
A:-------------------------|-----------------|
E:-------------------------|-----------------|

Verse 1 is just the chord progression repeated again.
f           C          Dm        Dm          f            C       Gm
I've got a bad disease.          All from my brain is where I bleed. 

f      C        Dm               Dm          f        C    Gm
Insanity it seems,               has got me by my soul to squeeze.

Verse 2, played with the same progression and these notes:

e:------------8/10\8---------|------------------|
B:---------------|-----------|--------------10--|
G:---------------|-----------|------------------|
D:---------------|-----------|------------------|
A:---------------|-----------|------------------|
E:---------------|-----------|------------------|



e:------------------|--------------|
B:--------13---10/11\10----6-------|
G:------------------|--------------|
D:------------------|--------------|
A:------------------|--------------|
E:------------------|--------------|


Chorus:
  f             C             Dm                         Bb
Where I go, I just don't know.   I got to, got to, gotta take it slow. 
 f              C             Dm                            A       Bb
When I find my peace of mind,    I'm gonna give you some of my good time.


Play Verse 3, then the Chorus again.


Solo (with the rhythm progression):
e:-------------------|----|-----------8--------|------------------|
B:-10\8--6--8/10--6~-|----|-/10-10-10----10\8--|-----6---------6--|
G:-------------------|----|--------------------|--------/7--------|
D:-------------------|----|--------------------|------------------|
A:-------------------|----|--------------------|------------------|
E:-------------------|----|--------------------|------------------|

     

e:----------------------|--------|--------------/10\8----------|------------|
B:-/10--8--6--8--10-6/8-|-\6-----|-/10--10--10----------10--10-|-\8-\6-\5---|
G:----------------------|-----7--|-----------------------------|------------|
D:----------------------|--------|-----------------------------|------------|
A:----------------------|--------|-----------------------------|------------|
E:----------------------|--------|-----------------------------|------------|

     

e:--/10------|----10\8----5----|---/10\8---------|--(8)--|---------------|
B:-----------|-----------------|-----------------|-------|-------13/15\--|
G:-----------|-----------------|-----------------|-------|---------------|
D:-----------|-----------------|-----------------|-------|---------------|
A:-----------|-----------------|-----------------|-------|---------------|
E:-----------|-----------------|-----------------|-------|---------------|

     

e:----------------------|
B:-13-----15\10---10\5--|
G:----------------------|
D:----------------------|
A:----------------------|
E:----------------------|


Verse 4 

Bridge (with rhythm progression, vary and add bass notes here and there):


e:---------13/15-|----------13-|------------------------|------------------|
B:---------------|-------------|--15-------13/15--------|----10/11---------|
G:---------------|-------------|------------------15\14-|-------------12---|
D:---------------|-------------|------------------------|------------------|
A:---------------|-------------|------------------------|------------------|
E:---------------|-------------|------------------------|------------------|
                                                                         


e:----------------|--------------------------|---------|-------|
B:----------------|---------/10--------------|---------|-------|
G:--10------------|-----------------------10-|---(10)--|-------|
D:----------------|--------------------------|---------|-------|
A:----------------|--------------------------|---------|-------|
E:----------------|--------------------------|---------|-------|


Ending Chorus (again with rhythm):

e:--------------|---------------|------------|-------------------|
B:--/10---------|---------8\6---|-6----------|--------------6/7\-|
G:--------------|---------------|------------|--5/7--------------|
D:--------------|---------------|------------|-------------------|
A:--------------|---------------|------------|-------------------|
E:--------------|---------------|------------|-------------------|
                                  


e:--------------------|---------------|-------------------------|
B:-\6-----------11/13-|--11\10--------|--11\10---------10/15----|
G:--------------------|---------------|-------------------------|
D:--------------------|---------------|-------------------------|
A:--------------------|---------------|-------------------------|
E:--------------------|---------------|-------------------------|


                                  
e:------------------|------------------|--------------|---------------------|
B:--15------15------|----------13------|-/10----------|----------10---------|
G:------------------|--/14---------14--|----------10--|---9/10--------10----|
D:------------------|------------------|--------------|---------------------|
A:------------------|------------------|--------------|---------------------|
E:------------------|------------------|--------------|---------------------|

                                  

e:-------------------|-------------------|---------|
B:----------8--\6----|--------10---------|---------|
G:--9/10-------------|--9/10-------10----|--(10)---|
D:-------------------|-------------------|---------|
A:-------------------|-------------------|---------|
E:-------------------|-------------------|---------|
___________________________________________________________________________________
6.otherside

-----------------------------------------------------------------
-----------------------------------------------------------------
-----------------------------------------------------------------
---------------7---7--9--7--5------------------------------------
---7---7---7--------------------7--------5---5---5---------------
-----------------------------------------------------------------


-----------------------------------------------------------------
-----------------------------------------------------------------
-----------------------------------------------------------------
---------------7---7--9--7--5------------------------------------
---7---7---7--------------------7--7--7--------5---5---5---------
-----------------------------------------------------------------


-----------------------------------------------------------------
-----------------------------------------------------------------
-----------------------------------------------------------------
---------------7---7---7----14---14---14---9---9---9-------------
---7---7---7-----------------------------------------------------
-----------------------------------------------------------------

                         or

-----------------------------------------------------------------
-----------------------------------------------------------------
---------------2---2---4-2-0-------------------------------------
--2---2---2-2------------------2------0---0---0------------------
-------------------------------3---------------------------------
--5---5---5-3--1---1---1-1--1---------3---3---3------------------


-----------------------------------------------------------------
-----------------------------------------------------------------
---------------2---2---4-2-0-------------------------------------
--2---2---2-2------------------2--2--2------0---0---0------------
-------------------------------3--3--3---------------------------
--5---5---5-3--1---1---1-1--1---------------3---3---3------------

-----------------------------------------------------------------
-----------------------------------------------------------------
---------------2---2---2---9---9---9-----------------------------
--2---2---2-2--------------------------9---9---9-----------------
-----------------------------------------------------------------
--5---5---5-3--1---1---1---8---8---8---5---5---5-----------------

play these chords behind the into Am  F  C  G using power chords 
and a High F at the high part,these are sort of the bass.

verse:0:33

------------5---------------------------15---------|-------------
-----------------------------------12--------------|-------------
---------------------------------------------------|-------------
---------------------------------------------------|-------------
---------------------------------------------------|-------------
----5---5-------5---5---/12---12-------------12\---|-------------

------------5---------------------------15---------|-------------
-----------------------------------12--------------|-------------
---------------------------------------------------|-------------
---------------------------------------------------|-------------
---------------------------------------------------|-------------
----5---5-------5---5---/12---12-------------12\---|-------------
                                                     G          A
------------8---------------------------15---------|-3----------5
-----------------------------------12--------------|-3----------5
---------------------------------------------------|-4----------6
---------------------------------------------------|-5----------7
---------------------------------------------------|-5----------7
----5---5-------5---5---/12---12-------------12\---|-3----------5

------------8---------------------------15---------|-------------
-----------------------------------12--------------|-------------
---------------------------------------------------|-------------
---------------------------------------------------|-------------
---------------------------------------------------|-------------
---------------------------------------------------|-------------
----5---5-------5---5---/12---12-------------12\---|-------------

------------8---------------------------15---------|-------------
-----------------------------------12--------------|-------------
---------------------------------------------------|-------------
---------------------------------------------------|-------------
---------------------------------------------------|-------------
---------------------------------------------------|-------------
----5---5-------5---5---/12---12-------------12\---|-------------
                                                     G          A
------------8---------------------------15---------|-3----------5
-----------------------------------12--------------|-3----------5
---------------------------------------------------|-4----------6
---------------------------------------------------|-5----------7
---------------------------------------------------|-5----------7
----5---5-------5---5---/12---12-------------12\---|-3----------5

play the chords A and E behind the part above then
  G         A         G                  A
--3---------5---------3------------------5----------------------
--3---------5---------3------------------5----------------------
--4---------6---------4------------------6----------------------
--5---------7---------5------------------7----------------------
--5---------7---------5------------------7----------------------
--3---------5---------3------------------5----------------------

chorus:1:18

-----------------------------------------------------------------
-----------------------------------------------------------------
-----------------------------------------------------------------
--------------7---7---9--7--5---------------5---5---7------------
--7---7---7---------------------7---7---7---------------7---7---7
-----------------------------------------------------------------

-----------------------------------------------------------------
-----------------------------------------------------------------
-----------------------------------------------------------------
--7---7---9--7--5---------------------------------5---7---7---7/-
----------------------7---7---7---5---5---7---7------------------
-----------------------------------------------------------------

-----------------------------------------------------------------
-----------------------------------------------------------------
-----------------------------------------------------------------
---14---14---14---17---17---17---17------------------------------
-----------------------------------------------------------------
-----------------------------------------------------------------


Bridge(distortion):2:51

--12----12----12------------------0-----0-------------------------
--0-----0-----0-------------12----12----12------------------------
------------------------------------------------------------------
------------------------------------------------------------------
------------------------------------------------------------------
------------------------------------------------------------------

--12----12----12------------------0-----0-------------------------
--0-----0-----0-------------12----12----12------------------------
------------------------------------------------------------------
------------------------------------------------------------------
------------------------------------------------------------------
------------------------------------------------------------------

not sure about the chords for this part i think its E and B

solo:3:21

-0---0---0---0---0--0---0---0---0---0---0---0---0---0---0---0---0-
-10--10--10--10--10/17--17--17--17--17--17--20--17--17--17--17--17
------------------------------------------------------------------
------------------------------------------------------------------
------------------------------------------------------------------
------------------------------------------------------------------

-0---0---0---0---0---0---0---0---0---0----------------------------
-17--17--20--17--17--20--17--17--20--17---------------------------
------------------------------------------------------------------
------------------------------------------------------------------
------------------------------------------------------------------
------------------------------------------------------------------
________________________________________________________________________________
7.Suck my kiss

Riff 1 (2x)
:------------------------------------------------------
:------------------------------------------------------
:----0-----------0-----------0--------------------77s99
:----0-----------0-----------0----------3333s5s777-----
:----1-----------1-----------1-----33/55---------------
:1-3---1-3---1-3---1-3---1-3---1-3---------------------

Riff 2
:---------------------------
:---------------------------
:---------------------------
:---------------------------
:---------------------1h3p1-
:1-3-3-1-3--1-3-3-1-3------1

Riff 3
:--4---3--67
:--4---3--67
:-----------
:3---4---5--
:3---4---5--
:-----------

Riff 4
:------3-3-3----------3-3-3-------------3-3-3------
:------3-3-3-2-2------3-3-3-2-2-3b0-----3-3-3-2-2--
:--1-1-4-2-4-2-2--1-1-4-2-4-2-2-4b0-1-1-4-2-4-2-2--
:1-2-2-------2-2--2-2-------2-2-----2-2-------2-2-1
:0-2-2-------0-0--2-2-------0-0-----2-2-------0-0-0
:--0-0------------0-0---------------0-0------------
I can't figure out the solo sorry
________________________________________________________________________________
8.By the way

|-------------------------|-------------------------|
|-------------------------|-------------------------|
|-------------------------|-------------------------|
|-10-10-10-10-10-10-10-10-|-10-10-10-10-10-10-10-10-|
|--8--8--8--8--8--8--8--8-|--7--7--7--7--7--7--7--7-|
|-------------------------|-------------------------|


  A5
|-----------------|-----------------||
|-----------------|-----------------||
|-----------------|-----------------||
|-----------------|-----------------||
|-7-7-7-7-7-7-7-7-|-7-7-7-7-7-7-7-7-||
|-5-5-5-5-5-5-5-5-|-5-5-5-5-5-5-5-5-||


 Verse
  F5                        C/E
|-------------------------|-------------------------|
|-------------------------|-------------------------|
|-10-10-10-10-10-10-10-10-|--9--9--9--9--9--9--9--9-|
|-10-10-10-10-10-10-10-10-|-10-10-10-10-10-10-10-10-|
|--8--8--8--8--8--8--8--8-|--7--7--7--7--7--7--7--7-|
|-------------------------|-------------------------|


  A5/e                      A5/EAsus4/e
|-----------------|-----------------|
|-----------------|-----------------|
|-----------------|---------9-9-7-7-|
|-7-7-7-7-7-7-7-7-|-7-7-7-7-7-7-7-7-|
|-7-7-7-7-7-7-7-7-|-7-7-7-7-7-7-7-7-|
|-----------------|-----------------|


  F5                        C/E
|-------------------------|-------------------------|
|-------------------------|-------------------------|
|-------------------------|-------------------------|
|-10-10-10-10-10-10-10-10-|-10-10-10-10-10-10-10-10-|
|--8--8--8--8--8--8--8--8-|--7--7--7--7--7--7--7--7-|
|-------------------------|-------------------------|


  A5
|-----------------|-----------------|
|-----------------|-----------------|
|-----------------|-----------------|
|-----------------|-----------------|
|-7-7-7-7-7-7-7-7-|-7-7-7-7-7-7-7-7-|
|-5-5-5-5-5-5-5-5-|-5-5-5-5-5-5-5-5-|


  F5                        C/E
|-------------------------|-------------------------|
|-------------------------|-------------------------|
|-10-10-10-10-10-10-10-10-|--9--9--9--9--9--9--9--9-|
|-10-10-10-10-10-10-10-10-|-10-10-10-10-10-10-10-10-|
|--8--8--8--8--8--8--8--8-|--7--7--7--7--7--7--7--7-|
|-------------------------|-------------------------|

[ Tab from: http://www.guitartabs.cc/tabs/r/red_hot_chili_peppers/the_greatest_hits_album_tab.html ]
------------------------------------------------------
10-10-10-10-10-10-10-10-10-10-10-10-10-10-10-10-10-10-
-9--9--9--9--9--9--9--9--9--9--9--9--9--9--9--9--9--9-
------------------------------------------------------
------------------------------------------------------
------------------------------------------------------

 Bridge
  N.C.
  Gtr II
|-x-x-x-x-x-x-x-x-x-x-x-x-x-x-x-x-|-x-x-x-x-x-x-x-x-x-x-x-x-x-x-x-x-|
|-x-x-x-x-x-x-x-x-x-x-x-x-x-x-x-x-|-x-x-x-x-x-x-x-x-x-x-x-x-x-x-x-x-|
|-x-x-x-x-x-x-x-x-x-x-x-x-x-x-x-x-|-x-x-x-x-x-x-x-x-x-x-x-x-x-x-x-x-|
|-x-x-x-x-x-x-x-x-x-x-x-x-x-x-x-x-|-x-x-x-x-x-x-x-x-x-x-x-x-x-x-x-x-|
|-x-x-x-x-x-x-x-x-x-x-x-x-x-x-x-x-|-x-x-x-x-x-x-x-x-x-x-x-x-x-x-x-x-|
|-x-x-x-x-x-x-x-x-x-x-x-x-x-x-x-x-|-x-x-x-x-x-x-x-x-x-x-x-x-x-x-x-x-|


|-x-x-x-x-x-x-x-x-x-x-x-x-x-x-x-x-|-x-x-x-x-x-x-x-x-x-x-x-x-x-x-x-x----|
|-x-x-x-x-x-x-x-x-x-x-x-x-x-x-x-x-|-x-x-x-x-x-x-x-x-x-x-x-x-x-x-x-x----|
|-x-x-x-x-x-x-x-x-x-x-x-x-x-x-x-x-|-x-x-x-x-x-x-x-x-x-x-x-x-x-x-x-x----|
|-x-x-x-x-x-x-x-x-x-x-x-x-x-x-x-x-|-x-x-x-x-x-x-x-x-x-x-x-x-x-x-x-x----|
|-x-x-x-x-x-x-x-x-x-x-x-x-x-x-x-x-|-x-x-x-x-x-x-x-x-x-x-x-x-x-x-x-x----|
|-x-x-x-x-x-x-x-x-x-x-x-x-x-x-x-x-|-x-x-x-x-x-x-x-x-x-x-x-x-x-x-x-x----|


|-x-x-x-x-x-x-x-x-x-x-x-x-x-x-x-x-|-x-x-x-x-x-x-x-x-x-x-x-x-x-x-x-x-|
|-x-x-x-x-x-x-x-x-x-x-x-x-x-x-x-x-|-x-x-x-x-x-x-x-x-x-x-x-x-x-x-x-x-|
|-x-x-x-x-x-x-x-x-x-x-x-x-x-x-x-x-|-x-x-x-x-x-x-x-x-x-x-x-x-x-x-x-x-|
|-x-x-x-x-x-x-x-x-x-x-x-x-x-x-x-x-|-x-x-x-x-x-x-x-x-x-x-x-x-x-x-x-x-|
|-x-x-x-x-x-x-x-x-x-x-x-x-x-x-x-x-|-x-x-x-x-x-x-x-x-x-x-x-x-x-x-x-x-|
|-x-x-x-x-x-x-x-x-x-x-x-x-x-x-x-x-|-x-x-x-x-x-x-x-x-x-x-x-x-x-x-x-x-|


|-x-x-x-x-x-x-x-x-x-x-x-x-x-x-x-x-|-x-x-x-x-x-x-x-x-x----------------------|
|-x-x-x-x-x-x-x-x-x-x-x-x-x-x-x-x-|-x-x-x-x-x-x-x-x-x-13-x-13-x-13-x-13----|
|-x-x-x-x-x-x-x-x-x-x-x-x-x-x-x-x-|-x-x-x-x-x-x-x-x-x--x-x--x-x--x-x--x----|
|-x-x-x-x-x-x-x-x-x-x-x-x-x-x-x-x-|-x-x-x-x-x-x-x-x-x-10-x-10-x-10-x-10----|
|-x-x-x-x-x-x-x-x-x-x-x-x-x-x-x-x-|-x-x-x-x-x-x-x-x-x----------------------|
|-x-x-x-x-x-x-x-x-x-x-x-x-x-x-x-x-|-x-x-x-x-x-x-x-x-x----------------------|


  Dm
|-------x-x-x-x-x-x-x-x-x-x-x-x-|-------x-x-x-x-x-x-x-x-x-x-x-x-|
|-10-10-x-x-x-x-x-x-x-x-x-x-x-x-|-10-10-x-x-x-x-x-x-x-x-x-x-x-x-|
|-10-10-x-x-x-x-x-x-x-x-x-x-x-x-|-10-10-x-x-x-x-x-x-x-x-x-x-x-x-|
|-12-12-x-x-x-x-x-x-x-x-x-x-x-x-|-12-12-x-x-x-x-x-x-x-x-x-x-x-x-|
|-------x-x-x-x-x-x-x-x-x-x-x-x-|-------x-x-x-x-x-x-x-x-x-x-x-x-|
|-------x-x-x-x-x-x-x-x-x-x-x-x-|-------x-x-x-x-x-x-x-x-x-x-x-x-|


|-------x-x-x-x-x-x-x-x-x-x-x-x-|-------x-x-x-x-x-------------------|
|-10-10-x-x-x-x-x-x-x-x-x-x-x-x-|-10-10-x-x-x-x-x-13-x-13-x-13-x-13-|
|-10-10-x-x-x-x-x-x-x-x-x-x-x-x-|-10-10-x-x-x-x-x--x-x--x-x--x-x--x-|
|-12-12-x-x-x-x-x-x-x-x-x-x-x-x-|-12-12-x-x-x-x-x-10-x-10-x-10-x-10-|
|-------x-x-x-x-x-x-x-x-x-x-x-x-|-------x-x-x-x-x-------------------|
|-------x-x-x-x-x-x-x-x-x-x-x-x-|-------x-x-x-x-x-------------------|


|-------x-x-x-x-x-x-x-x-x-x-x-x-|-------x-x-x-x-x-x-x-x-x-x-x-x-|
|-10-10-x-x-x-x-x-x-x-x-x-x-x-x-|-10-10-x-x-x-x-x-x-x-x-x-x-x-x-|
|-10-10-x-x-x-x-x-x-x-x-x-x-x-x-|-10-10-x-x-x-x-x-x-x-x-x-x-x-x-|
|-12-12-x-x-x-x-x-x-x-x-x-x-x-x-|-12-12-x-x-x-x-x-x-x-x-x-x-x-x-|
|-------x-x-x-x-x-x-x-x-x-x-x-x-|-------x-x-x-x-x-x-x-x-x-x-x-x-|
|-------x-x-x-x-x-x-x-x-x-x-x-x-|-------x-x-x-x-x-x-x-x-x-x-x-x-|


                                                              To Coda
|-------x-x-x-x-x-x-x-x-x-x-x-x-|-------x-x-x-x-------------------------||
|-10-10-x-x-x-x-x-x-x-x-x-x-x-x-|-10-10-x-x-x-x-10-10-10-10-10-10-10-10-||
|-10-10-x-x-x-x-x-x-x-x-x-x-x-x-|-10-10-x-x-x-x-10-10-10-10-10-10-10-10-||
|-12-12-x-x-x-x-x-x-x-x-x-x-x-x-|-12-12-x-x-x-x-12-12-12-12-12-12-12-12-||
|-------x-x-x-x-x-x-x-x-x-x-x-x-|-------x-x-x-x-------------------------||
|-------x-x-x-x-x-x-x-x-x-x-x-x-|-------x-x-x-x-------------------------||


 Chorus
  f                           C
  Gtrs I, II
|-1-1-1-1-1-1-1-1-1-1-1-1-1-1-0-0-|-0-0-0-0-0-0-0-0-0-0-0-0-0-0-0-0-|
|-1-1-1-1-1-1-1-1-1-1-1-1-1-1-1-1-|-1-1-1-1-1-1-1-1-1-1-1-1-1-1-1-1-|
|-2-2-2-2-2-2-2-2-2-2-2-2-2-2-0-0-|-0-0-0-0-0-0-0-0-0-0-0-0-0-0-0-0-|
|-3-3-3-3-3-3-3-3-3-3-3-3-3-3-2-2-|-2-2-2-2-2-2-2-2-2-2-2-2-2-2-2-2-|
|-x-x-x-x-x-x-x-x-x-x-x-x-x-x-3-3-|-3-3-3-3-3-3-3-3-3-3-3-3-3-3-3-3-|
|-1-1-1-1-1-1-1-1-1-1-1-1-1-1-----|---------------------------------|


  Dm
|-1-1-1-1-1-1-1-1-1-1-1-1-1-1-1-1-|-1-1-1-1-1-1-1-1-1-1-1-1-1-1-1-1----|
|-3-3-3-3-3-3-3-3-3-3-3-3-3-3-3-3-|-3-3-3-3-3-3-3-3-3-3-3-3-3-3-3-3----|
|-2-2-2-2-2-2-2-2-2-2-2-2-2-2-2-2-|-2-2-2-2-2-2-2-2-2-2-2-2-2-2-2-2----|
|-0-0-0-0-0-0-0-0-0-0-0-0-0-0-0-0-|-0-0-0-0-0-0-0-0-0-0-0-0-0-0-0-0----|
|---------------------------------|------------------------------------|
|---------------------------------|------------------------------------|


  f                           C
|-1-1-1-1-1-1-1-1-1-1-1-1-1-1-0-0-|-0-0-0-0-0-0-0-0-0-0-0-0-0-0-0-0-|
|-1-1-1-1-1-1-1-1-1-1-1-1-1-1-1-1-|-1-1-1-1-1-1-1-1-1-1-1-1-1-1-1-1-|
|-2-2-2-2-2-2-2-2-2-2-2-2-2-2-0-0-|-0-0-0-0-0-0-0-0-0-0-0-0-0-0-0-0-|
|-3-3-3-3-3-3-3-3-3-3-3-3-3-3-2-2-|-2-2-2-2-2-2-2-2-2-2-2-2-2-2-2-2-|
|-x-x-x-x-x-x-x-x-x-x-x-x-x-x-3-3-|-3-3-3-3-3-3-3-3-3-3-3-3-3-3-3-3-|
|-1-1-1-1-1-1-1-1-1-1-1-1-1-1-----|---------------------------------|


  Am                                    Bb
|-0-0-0-0-0-0-0-0-0-0-0-0-0-0-0-0-|-0-0-1-1-1-1-1-1-1----||
|-1-1-1-1-1-1-1-1-1-1-1-1-1-1-1-1-|-1-1-3-3-3-3-3-3-3----||
|-2-2-2-2-2-2-2-2-2-2-2-2-2-2-2-2-|-2-2-3-3-3-3-3-3-3----||
|-2-2-2-2-2-2-2-2-2-2-2-2-2-2-2-2-|-2-2-3-3-3-3-3-3-3----||
|-0-0-0-0-0-0-0-0-0-0-0-0-0-0-0-0-|-0-0-1-1-1-1-1-1-1----||
|---------------------------------|----------------------||


 Interlude
  Distortion and some other effect
  Gtr II
        \0.5/    \0.5/    \0.5/      \0.5/    \0.5/    \0.5/    \0.5/
|--------------------------------|-------------------------------------|
|--------------------------------|-------------------------------------|
|--------------------------------|-------------------------------------|
|-12--(12)-----(12)-----(12)-----|-(12)-----(12)-----(12)-----(12)-----|
|--------------------------------|-------------------------------------|
|--------------------------------|-------------------------------------|


                                                               D.S. al Coda
    \0.5/    \0.5/    \0.5/    \0.5/      \0.5/    \0.5/    \0.5/    \0.5/
|-------------------------------------|-------------------------------------||
|-------------------------------------|-------------------------------------||
|-------------------------------------|-------------------------------------||
|-(12)-----(12)-----(12)-----(12)-----|-(12)-----(12)-----(12)-----(12)-----||
|-------------------------------------|-------------------------------------||
|-------------------------------------|-------------------------------------||


 Verse
  &
  F5                        C/E
  Gtr I
|-------------------------|-------------------------|
|-------------------------|-------------------------|
|-------------------------|-------------------------|
|-10-10-10-10-10-10-10-10-|-10-10-10-10-10-10-10-10-|
|--8--8--8--8--8--8--8--8-|--7--7--7--7--7--7--7--7-|
|-------------------------|-------------------------|


  A5
|-----------------|-----------------|
|-----------------|-----------------|
|-----------------|-----------------|
|-----------------|-----------------|
|-7-7-7-7-7-7-7-7-|-7-7-7-7-7-7-7-7-|
|-5-5-5-5-5-5-5-5-|-5-5-5-5-5-5-5-5-|


  F5                        C/E
|-------------------------|-------------------------|
|-------------------------|-------------------------|
|-10-10-10-10-10-10-10-10-|--9--9--9--9--9--9--9--9-|
|-10-10-10-10-10-10-10-10-|-10-10-10-10-10-10-10-10-|
|--8--8--8--8--8--8--8--8-|--7--7--7--7--7--7--7--7-|
|-------------------------|-------------------------|


  A5/e                      A5/EAsus4/e
|-----------------|-----------------|
|-----------------|-----------------|
|-----------------|---------9-9-7-7-|
|-7-7-7-7-7-7-7-7-|-7-7-7-7-7-7-7-7-|
|-7-7-7-7-7-7-7-7-|-7-7-7-7-7-7-7-7-|
|-----------------|-----------------|


  F5                        C/E
|-------------------------|-------------------------|
|-------------------------|-------------------------|
|-------------------------|-------------------------|
|-10-10-10-10-10-10-10-10-|-10-10-10-10-10-10-10-10-|
|--8--8--8--8--8--8--8--8-|--7--7--7--7--7--7--7--7-|
|-------------------------|-------------------------|


  A5                            Asus4
|-----------------|-----------------|
|-----------------|-----------------|
|-----------------|-----------------|
|-----------------|-----------------|
|-7-7-7-7-7-7-7-7-|-7-7-7-7-7-7-5-5-|
|-5-5-5-5-5-5-5-5-|-5-5-5-5-5-5-5-5-|


  F5                        C/E
|-------------------------|-------------------------|
|-------------------------|-------------------------|
|-10-10-10-10-10-10-10-10-|--9--9--9--9--9--9--9--9-|
|-10-10-10-10-10-10-10-10-|-10-10-10-10-10-10-10-10-|
|--8--8--8--8--8--8--8--8-|--7--7--7--7--7--7--7--7-|
|-------------------------|-------------------------|


  A5/e          A5
|------------------|-------------------------||
|---------------10-|-10-10-10-10-10-10-10-10-||
|----------------9-|--9--9--9--9--9--9--9--9-||
|-7-7-7-7-7-7-7--7-|--7--7--7--7--7--7--7--7-||
|-7-7-7-7-7-7-7--0-|--0--0--0--0--0--0--0--0-||
|------------------|-------------------------||


 Interlude
  Dm
  Gtr II
|-------------|-------------|-------------|-----------------------------|
|-10-10-------|-10-10-------|-10-10-------|-10-10---x-13-x-13-x-13-x-13-|
|-10-10-------|-10-10-------|-10-10-------|-10-10---x--x-x--x-x--x-x--x-|
|-12-12-------|-12-12-------|-12-12-------|-12-12---x-10-x-10-x-10-x-10-|
|-------------|-------------|-------------|-----------------------------|
|-------------|-------------|-------------|-----------------------------|


|-------x-x-x-x-x-x-x-x-x-x-x-x-|-------x-x-x-x-x-x-x-x-x-x-x-x-|
|-10-10-x-x-x-x-x-x-x-x-x-x-x-x-|-10-10-x-x-x-x-x-x-x-x-x-x-x-x-|
|-10-10-x-x-x-x-x-x-x-x-x-x-x-x-|-10-10-x-x-x-x-x-x-x-x-x-x-x-x-|
|-12-12-x-x-x-x-x-x-x-x-x-x-x-x-|-12-12-x-x-x-x-x-x-x-x-x-x-x-x-|
|-------x-x-x-x-x-x-x-x-x-x-x-x-|-------x-x-x-x-x-x-x-x-x-x-x-x-|
|-------x-x-x-x-x-x-x-x-x-x-x-x-|-------x-x-x-x-x-x-x-x-x-x-x-x-|


|-------x-x-x-x-x-x-x-x-x-x-x-x-|-------x-x-x-x-x-------------------|
|-10-10-x-x-x-x-x-x-x-x-x-x-x-x-|-10-10-x-x-x-x-x-13-x-13-x-13-x-13-|
|-10-10-x-x-x-x-x-x-x-x-x-x-x-x-|-10-10-x-x-x-x-x--x-x--x-x--x-x--x-|
|-12-12-x-x-x-x-x-x-x-x-x-x-x-x-|-12-12-x-x-x-x-x-10-x-10-x-10-x-10-|
|-------x-x-x-x-x-x-x-x-x-x-x-x-|-------x-x-x-x-x-------------------|
|-------x-x-x-x-x-x-x-x-x-x-x-x-|-------x-x-x-x-x-------------------|


|-------x-x-x-x-x-x-x-x-x-x-x-x-|-------x-x-x-x-x-x-x-x-x-x-x-x-|
|-10-10-x-x-x-x-x-x-x-x-x-x-x-x-|-10-10-x-x-x-x-x-x-x-x-x-x-x-x-|
|-10-10-x-x-x-x-x-x-x-x-x-x-x-x-|-10-10-x-x-x-x-x-x-x-x-x-x-x-x-|
|-12-12-x-x-x-x-x-x-x-x-x-x-x-x-|-12-12-x-x-x-x-x-x-x-x-x-x-x-x-|
|-------x-x-x-x-x-x-x-x-x-x-x-x-|-------x-x-x-x-x-x-x-x-x-x-x-x-|
|-------x-x-x-x-x-x-x-x-x-x-x-x-|-------x-x-x-x-x-x-x-x-x-x-x-x-|


|-------x-x-x-x-x-x-x-x-x-x-x----|------------------------------------------------||
|-10-10-x-x-x-x-x-x-x-x-x-x-x-10-|-10-10-10-10-10-10-10-10-10-10-10-10-10-10-10-10||
|-10-10-x-x-x-x-x-x-x-x-x-x-x-10-|-10-10-10-10-10-10-10-10-10-10-10-10-10-10-10-10||
|-12-12-x-x-x-x-x-x-x-x-x-x-x-12-|-12-12-12-12-12-12-12-12-12-12-12-12-12-12-12-12||
|-------x-x-x-x-x-x-x-x-x-x-x----|------------------------------------------------||
|-------x-x-x-x-x-x-x-x-x-x-x----|------------------------------------------------||


   Chorus
    f                           C
    Gtrs I, II
||--1-1-1-1-1-1-1-1-1-1-1-1-1-1-0-0-|-0-0-0-0-0-0-0-0-0-0-0-0-0-0-0-0-|
||o-1-1-1-1-1-1-1-1-1-1-1-1-1-1-1-1-|-1-1-1-1-1-1-1-1-1-1-1-1-1-1-1-1-|
||--2-2-2-2-2-2-2-2-2-2-2-2-2-2-0-0-|-0-0-0-0-0-0-0-0-0-0-0-0-0-0-0-0-|
||--3-3-3-3-3-3-3-3-3-3-3-3-3-3-2-2-|-2-2-2-2-2-2-2-2-2-2-2-2-2-2-2-2-|
||o-x-x-x-x-x-x-x-x-x-x-x-x-x-x-3-3-|-3-3-3-3-3-3-3-3-3-3-3-3-3-3-3-3-|
||--1-1-1-1-1-1-1-1-1-1-1-1-1-1-----|---------------------------------|


  Dm
|-1-1-1-1-1-1-1-1-1-1-1-1-1-1-1-1-|-1-1-1-1-1-1-1-1-1-1-1-1-1-1-1-1----|
|-3-3-3-3-3-3-3-3-3-3-3-3-3-3-3-3-|-3-3-3-3-3-3-3-3-3-3-3-3-3-3-3-3----|
|-2-2-2-2-2-2-2-2-2-2-2-2-2-2-2-2-|-2-2-2-2-2-2-2-2-2-2-2-2-2-2-2-2----|
|-0-0-0-0-0-0-0-0-0-0-0-0-0-0-0-0-|-0-0-0-0-0-0-0-0-0-0-0-0-0-0-0-0----|
|---------------------------------|------------------------------------|
|---------------------------------|------------------------------------|


  f                           C
|-1-1-1-1-1-1-1-1-1-1-1-1-1-1-0-0-|-0-0-0-0-0-0-0-0-0-0-0-0-0-0-0-0-|
|-1-1-1-1-1-1-1-1-1-1-1-1-1-1-1-1-|-1-1-1-1-1-1-1-1-1-1-1-1-1-1-1-1-|
|-2-2-2-2-2-2-2-2-2-2-2-2-2-2-0-0-|-0-0-0-0-0-0-0-0-0-0-0-0-0-0-0-0-|
|-3-3-3-3-3-3-3-3-3-3-3-3-3-3-2-2-|-2-2-2-2-2-2-2-2-2-2-2-2-2-2-2-2-|
|-x-x-x-x-x-x-x-x-x-x-x-x-x-x-3-3-|-3-3-3-3-3-3-3-3-3-3-3-3-3-3-3-3-|
|-1-1-1-1-1-1-1-1-1-1-1-1-1-1-----|---------------------------------|


  Am                                    Bb
|-0-0-0-0-0-0-0-0-0-0-0-0-0-0-0-0-|-0-0-1-1-1-1-1-1-1-----||
|-1-1-1-1-1-1-1-1-1-1-1-1-1-1-1-1-|-1-1-3-3-3-3-3-3-3----o||
|-2-2-2-2-2-2-2-2-2-2-2-2-2-2-2-2-|-2-2-3-3-3-3-3-3-3-----||
|-2-2-2-2-2-2-2-2-2-2-2-2-2-2-2-2-|-2-2-3-3-3-3-3-3-3-----||
|-0-0-0-0-0-0-0-0-0-0-0-0-0-0-0-0-|-0-0-1-1-1-1-1-1-1----o||
|---------------------------------|-----------------------||


 Outro
  f              C
  Gtr II
|-1--1-1-1-1-1-1-0-|-(0)-0-0-0-0-0-0-0-|
|-1--1-1-1-1-1-1-1-|-(1)-1-1-1-1-1-1-1-|
|-2--2-2-2-2-2-2-0-|-(0)-0-0-0-0-0-0-0-|
|-3--3-3-3-3-3-3-2-|-(2)-2-2-2-2-2-2-2-|
|-x--x-x-x-x-x-x-3-|-(3)-3-3-3-3-3-3-3-|
|-1--1-1-1-1-1-1---|-------------------|


  Dm
|-1--1-1-1-1-1-1-1-|-(1)-1-1-1-1-1-1-1---|
|-3--3-3-3-3-3-3-3-|-(3)-3-3-3-3-3-3-3---|
|-2--2-2-2-2-2-2-2-|-(2)-2-2-2-2-2-2-2---|
|-0--0-0-0-0-0-0-0-|-(0)-0-0-0-0-0-0-0---|
|------------------|---------------------|
|------------------|---------------------|


  f              C
|-1--1-1-1-1-1-1-0-|-(0)-0-0-0-0-0-0-0-|
|-1--1-1-1-1-1-1-1-|-(1)-1-1-1-1-1-1-1-|
|-2--2-2-2-2-2-2-0-|-(0)-0-0-0-0-0-0-0-|
|-3--3-3-3-3-3-3-2-|-(2)-2-2-2-2-2-2-2-|
|-x--x-x-x-x-x-x-3-|-(3)-3-3-3-3-3-3-3-|
|-1--1-1-1-1-1-1---|-------------------|


  Am                     Bb
|-0--0-0-0-0-0-0-0-|-(0)-1-1-1-1-1-1-1---|
|-1--1-1-1-1-1-1-1-|-(1)-3-3-3-3-3-3-3---|
|-2--2-2-2-2-2-2-2-|-(2)-3-3-3-3-3-3-3---|
|-2--2-2-2-2-2-2-2-|-(2)-3-3-3-3-3-3-3---|
|-0--0-0-0-0-0-0-0-|-(0)-1-1-1-1-1-1-1---|
|------------------|---------------------|


  Dm
|-^5--------|-(5)----*|
|-^6--------|-(6)----*|
|-^7--------|-(7)----*|
|-^7--------|-(7)----*|
|-^5--------|-(5)----*|
|-----------|--------*|
__________________________________________________________________________
9.Parallel universe

Palm Mute Through out
Cm
------------------------------|-----------------------------------
------------------------------|-----------------------------------
-8-8-8-8-8-8-8-8-8-8-8-8-8-8-8|-8-8-8-8-8-8-8-8-8-8-8-8-8-8-8-8-8-
------------------------------|-----------------------------------
------------------------------|-----------------------------------
------------------------------|-----------------------------------
 Bb
------------------------------|-----------------------------------
------------------------------|-----------------------------------
-7-7-7-7-7-7-7-7-7-7-7-7-7-7-7|-7-7-7-7-7-7-7-7-7-7-7-7-7-7-7-7-7-
------------------------------|-----------------------------------
------------------------------|-----------------------------------
------------------------------|-----------------------------------
Dm                             Eb
------------------------------|-------------------------------------
------------------------------|-------------------------------------
------------------------------|-------------------------------------
------------------------------|-------------------------------------
-8-8-8-8-8-8-8-8-8-8-8-8-8-8-8|-10-10-10-10-10-10-10-10-10-10-10-10-
------------------------------|-------------------------------------
              Gsus4
-------------|----------------------------------------------------
-------------|----------------------------------------------------
-------------|----------------------------------------------------
-------------|-10-10-10-10-10-10-10-10-10-10-10-10-10-10-10-10----
-10-10-10-10-|----------------------------------------------------
-------------|----------------------------------------------------
G                              Dm
------------------------------|--------------------------------------
------------------------------|--------------------------------------
------------------------------|-10-10-10-10-10-10-10-10-10-10-10-10--
-9-9-9-9-9-9-9-9-9-9-9-9-9-9-9|--------------------------------------
------------------------------|--------------------------------------
------------------------------|--------------------------------------
               Eb
-------------|--------------------------------------------------
-------------|--------------------------------------------------
-10-10-10-10-|-12-12-12-12-12-12-12-12-12-12-12-12-12-12-12-12--
-------------|--------------------------------------------------
-------------|--------------------------------------------------
-------------|--------------------------------------------------
 Gsus4                                            Gm
|------------------------------------------------|------------------------
|------------------------------------------------|-11-11-11-11-11-11-11-11
|------------------------------------------------|------------------------
|-10-10-10-10-10-10-10-10-10-10-10-10-10-10-10-10|------------------------
|------------------------------------------------|------------------------
|------------------------------------------------|------------------------
 G
------------------------------
-12-12-12-12-12-X-------------
-------------------X----------
-------------------X----------
-------------------X----------
------------------------------
Chorus0:49
 C5              Ab5    Eb5         G     G5   
-----------------------------------------------------------------------
-----------------------------------------------------------------------
-5---------------------8-8-8---8--X-4--4-------------------------------
-5---------------6--6--8-8-8---8--X-5--5--5--5--5--5--5--5--5--5--5--5-
-3---------------6--6--6-6-6---6--X-5--5--5--5--5--5--5--5--5--5--5--5-
-------------3---4--4-------------X-3--3--3--3--3--3--3--3--3--3--3--3-
                2:05
          C5     Cm  
-----------------8-------------------------
-----------------8-------------------------
----------5-5----6-------------------------
-5--5--5--5-5------------------------------
-5--5--5--3-3------------------------------
-3--3--3-----------------------------------

Palm mute
------------------------------------------------------------------
------------------------------------------------------------------
-8--8--8--8--8--8-------------------------------------------------
-------------------8--8--8--8--8--8-------------------------------
-------------------------------------10--10--10--10---------------
------------------------------------------------------------------


----------------------------------
----------------------------------
----------------------------------
----------------------------------
----------------------------------
-8-8-8-8-8-8-8-8-8-8-8-8-8-8-8-8--

------------------------------------------------------------------
------------------------------------------------------------------
-8--8--8--8--8--8-------------------------------------------------
-------------------8--8--8--8--8--8-------------------------------
-------------------------------------10--10--10--10---------------
------------------------------------------------------------------

Second half 2:36
-------------------------------------------------
-------------------------------------------------
-------------------------------------------------
-------------------------------------------------
-10-10-10-10-10-10-10-10-10-10-10-10-10-10-10-10-
-------------------------------------------------x2

-----------------------------------
-----------------------------------
-----------------------------------
-----------------------------------
-8-8-8-8-8-8-8-8-8-8-8-8-8-8-8-8-8-
-----------------------------------x2

--------------------------------|-------------------------------------
--------------------------------|-------------------------------------
--------------------------------|-------------------------------------
-7-7-7-7-7-7-7-7-7-7-7-7-7-7-7-7|-8-8-8-8-8-8-8-8-8-8-8-8-8-8-8-8/----
--------------------------------|-------------------------------------
--------------------------------|-------------------------------------

-------------------------------------------------------
-------------------------------------------------------
-------------------------------------------------------
-/12-12-12-12-12-12-12-12-12-12-12-12-12-12-12-12------
-------------------------------------------------------
-------------------------------------------------------

--------------------------------------------------
-11-11-11-11-11-11-11-11-12-12-12-12-12-12-12-12--
--------------------------------------------------
--------------------------------------------------
--------------------------------------------------
--------------------------------------------------

Outro 3:21
Use Slow Heavy Phasing

Cm                         Bb                            D5
----------------------------------------------------------------
--8------------------------------6------------------------------
---------------------------7------------------------------------
---------------------------------------------------------7------
------------------------------------------------15\------5------
----------------------------------------------------------------
Eb6             Gsus4      G              C5
-------------------------------------------------------------------
-------------------------------------------------------------------
-5--------------5----------4----------X---5---------------3--------
-5--------------5----------5----------X---5---------------3--------
-6--------------5----------5----------X---3---------------1--------
---------------------------3---------------------------------------

-------------------------------------------------------------------
-------------------------------------------------------------------
-----------5-------------------------------------------------------
---7-------5-------------------------------------------------------
---5-------6-------------------------------------------------------
-----------------3-3-3-3-3-3-3-3-3-3-3-3-3-3-3-3-3-3-3-3-3-3-3-3-3-

                      w/bar___________________________________________
----------------------------------------------------------------------
----------------------13---11(13)-------------------------------------
--------------5-------------------------------------------------------
--------------5-------------------------------------------------------
--------------3-------------------------------------------------------
-3-3-3-3-3-3----------------------------------------------------------
(Do the whammy bar on the 11fret to the 13th 13 times aprox)

                                                                    w/bar
-15--12------12---14^15-----14^15^14^15--------14^15^14^15--------------------
------------------------------------------------------------13---11(13)--13---
-----------------------------------------------------------------------------5
-----------------------------------------------------------------------------5
-----------------------------------------------------------------------------3
------------------------------------------------------------------------------

________________________________________________________________________________
10.Breaking the girl

Tune Down 1/2 Step:

12-str acous

    Rhy. Fig. 1
    A                 G   B/A Am7               D/A      D/G   D
eb|---------------------|---------------------|---------------------|
Bb|-2---2--2-2----2-2-0-|-4---5--5-5----5-5-x-|-7---7--7-7-----7----|
Gb|-2---2--2-2----2-2-0-|-4---5--5-5----5-5-x-|-7---7--7-7-----7----|
Db|-2---2--2-2----2-2-0-|-4---5--5-5----5-5-x-|-7---7--7-7-----7----|
Ab|-0---0--0-4p0--0-0---|-0---0--0-7p0--0-0---|-0---0--0-10--0---0--|
Eb|---------------------|---------------------|---------------------|

                 End Rhy. Fig. 1

eb|-9----9---9--9-----9--9-\---|
Bb|-9----10--10-10----10-10\--*|
Gb|-9----9---9--9-----9--9-\---|
Db|-9----11--11-11----11-11\---|
Ab|-0----0---0--0---0---------*|
Eb|----------------------------|


Verse
-----
Gtr. 1: w/ Rhy. Fig. 1, 4 times, simile

then:

    A
eb|-9-----9---9---9-----9---9-\--|
Bb|-10----10--10--10----10--10\--|
Gb|-9-----9---9---9-----9---9-\--|
Db|-11----11--11--11----11--11\--|
Ab|-0---0-0---0---0---0-0---0----|
Eb|------------------------------|

Pre-Chorus
----------

    C                    G                    Am             G6/A   Am
eb|-0---0-0--0--0-0-0--|-3---3-3-3-3--3-3-3-|-0--0-0-0--0--0-0-0--|-0--0-0-0--0--0-0-0--|
Bb|-1---1-1--1--1-1-1--|-0---0-0-0-0--0-0-0-|-1--1-1-1--1--1-0-0--|-1--1-1-1--1--1-1-1--|
Gb|-0---0-0--0--0-0-0--|-0---0-0-0-0--0-0-0-|-2--2-2-2--2--2-0-0--|-2--2-2-2--2--2-2-2--|
Db|-2---2-2--2--2-2-2--|-0---0-0-0-0--0-0-0-|-2--2-2-2--2--2-0-0--|-2--2-2-2--2--2-2-2--|
Ab|-3---3-3--3--3-3-3--|-2---2-2-2-2--2-2-2-|-0--0-0-0--0--0-0-0--|-0--0-0-0--0--0-0-0--|
Eb|--------------------|-3---3-3-3-3--3-3-3-|---------------------|---------------------|

    C                     G                    Fmaj7
eb|-0--0-0-0--0--0-0-0--|-3---3-3-3-3---3-3--|-0---0-0--0---0-0--|-0---0-0-0-0---0-0--|
Bb|-1--1-1-1--1--1-1-1--|-0---0-0-0-0---0-0--|-1---1-1--1---1-1--|-1---1-1-1-1---1-1--|
Gb|-0--0-0-0--0--0-0-0--|-0---0-0-0-0---0-0--|-2---2-2--2---2-2--|-2---2-2-2-2---2-2--|
Db|-2--2-2-2--2--2-2-2--|-0---0-0-0-0---0-0--|-3---3-3--3---3-3--|-3---3-3-3-3---3-3--|
Ab|-3--3-3-3--3--3-3-3--|-2---2-2-2-2---2-2--|-3---3-3--3---3-3--|-3---3-3-3-3---3-3--|
Eb|---------------------|-3---3-3-3-3---3-3--|-------------------|--------------------|

Chorus
------

    Rhy. Fig. 2
    Am         E7/B        C6        G/D
eb|-0--0-0--0--0--0-0-0--|---------------------|
Bb|-1--1-1--1--3--3-3-3--|-1--1-1-1--3--3-3-3--|
Gb|-2--2-2--2--1--1-1-1--|-2--2-2-2--4--4-4-4--|
Db|-2--2-2--2--0--0-0-0--|-2--2-2-2--5--5-5-5--|
Ab|-0--0-0--0--2--2-2-2--|-3--3-3-3--5--5-5-5--|
Eb|----------------------|---------------------|

    E7
eb|-10--10-10-10--10--10-10-10--|-10--10-10-10--10--10-10-10--|
Bb|-9---9--9--9---9---9--9--9---|-9---9--9--9---9---9--9--9---|
Gb|-9---9--9--9---9---9--9--9---|-9---9--9--9---9---9--9--9---|
Db|-9---9--9--9---9---9--9--9---|-9---9--9--9---9---9--9--9---|
Ab|-7---7--7--7---7---7--7--7---|-7---7--7--7---7---7--7--7---|
Eb|-0---0--0--0---0---0--0--0---|-0---0--0--0---0---0--0--0---|

                                                                             End Rhy. Fig. 2
    Am         E7/B        C6        G/D         f
eb|-0--0-0--0--0--0-0-0--|---------------------|-1--1-1-1--1--1-1-1--|-1--1-1-1--1--1-1-1--|
Bb|-1--1-1--1--3--3-3-3--|-1--1-1-1--3--3-3-3--|-1--1-1-1--1--1-1-1--|-1--1-1-1--1--1-1-1--|
Gb|-2--2-2--2--1--1-1-1--|-2--2-2-2--4--4-4-4--|-2--2-2-2--2--2-2-2--|-2--2-2-2--2--2-2-2--|
Db|-2--2-2--2--0--0-0-0--|-2--2-2-2--5--5-5-5--|-3--3-3-3--3--3-3-3--|-3--3-3-3--3--3-3-3--|
Ab|-0--0-0--0--2--2-2-2--|-3--3-3-3--5--5-5-5--|-3--3-3-3--3--3-3-3--|-3--3-3-3--3--3-3-3--|
Eb|----------------------|---------------------|-1--1-1-1--1--1-1-1--|-1--1-1-1--1--1-1-1--|

Gtr. 1: w/ Rhy. Fig. 2, 1st 7 meas.

then:

    F7        E7open
eb|-1--1-1-1--0--0-0--0--|
Bb|-4--4-4-4--4--4-4--4--|
Gb|-2--2-2-2--1--1-1--1--|
Db|-1--1-1-1--0--0-0--0--|
Ab|-3--3-3-3--2--2-2--2--|
Eb|-1--1-1-1--0--0-0--0--|

then play: Verse, Pre-Chorus & Chorus

then:

Interlude
---------
Gtr. 1

                                      Play 8 Times
      Am                              F/C

eb||----------------------|---------------------||
Bb||*-----------1---------|-----------1--1--1--*||
Gb||-----2-0-2--2--2-0-2--|----2-0-2--2--2--2---||
Db||-----2-0-2-----2-0-2--|----2-0-2--3--3--3---||
Ab||*-0-------------------|-0---------3--3--3--*||
Eb||----------------------|---------------------||

then play Chorus

then:

Outro
-----
Gtr. 1: w/ Rhy. Fig. 2

Gtr. 2 (elec.)
w/ clean tone
mf

      Am         E7/B         C6         G/D

eb||-----12---------12------|----12---------12------|
Bb||*----13--13-----13--13--|----13--13-----13--13--|
Gb||---------14---------14--|--------14---------14--|
Db||------------------------|-----------------------|
Ab||*-----------------------|-----------------------|
Eb||------------------------|-----------------------|

    E7

eb|-----------------------|-----------------------|
Bb|----12--13-----12--13--|----12--13-----12--13--|
Gb|----13--14-----13--14--|----13--14-----13--14--|
Db|-----------------------|-----------------------|
Ab|-----------------------|-----------------------|
Eb|-----------------------|-----------------------|

    Am         E7/B         C6         G/D

eb|----12---------12------|----12---------12------|
Bb|----13--13-----13--13--|----13--13-----13--13--|
Gb|--------14---------14--|--------14---------14--|
Db|-----------------------|-----------------------|
Ab|-----------------------|-----------------------|
Eb|-----------------------|-----------------------|

    F                           Play 3 Times and Fade

eb|-----------------------|------------------------||
Bb|----12--13-----12--13--|----12--13-----12--13--*||
Gb|----13--14-----13--14--|----13--14-----13--14---||
Db|-----------------------|------------------------||
Ab|-----------------------|-----------------------*||
Eb|-----------------------|------------------------||
________________________________________________________________
11.My Friends

Intro:
e:----------0-------------0-----0-------------------------|
B:----------3-------------3-----3-------------------------|
G:------2-----------0h2-------0---0-------------0h2p0-----|
D:--0-----------0-3------------------------0h2--------2p0-|
A:--------------------------2-------2-2h3-----------------|
D:--------------------------------------------------------|

Chorus repeated twice(First Played at 0:55):
e:---------------------------------|
B:--1*---1*-------1--------3---1---|
G:--0----2--------0--------0---2---|
D:--2----2------2--------4-----2---|
A:--3----0----3------3-5-------0---|
E:---------------------------------|
*-Hold Note

The Play this after the Chorus:
e:----------0-------------0-----0-------------------------|
B:----------3-------------3-----3-------------------------|
G:------2-----------0h2-------0---0-------------0h2p0-----|
D:--0-----------0-3------------------------0h2--------2p0-|
A:--------------------------2-------2-2h3-----------------|
E:--------------------------------------------------------|

Chorus repeated twice(Played again at 1:36) 
e:---------------------------------|
B:--1*---1*-------1--------3---1---|
G:--0----2--------0--------0---2---|
D:--2----2------2--------4-----2---|
A:--3----0----3------3-5-------0---|
E:---------------------------------|
*-Hold Note

Solo (Starts at 1:59)
e:------------------------------------------------|    
B:------------------------------------------------|
G:--9/11-11-11-11\-9\-7----7/9\---7\---5----5/-7\-|     
D:--x--x--x--x--x--x--x----x-x----x----x----x--x--|
A:--7/-9--9--9--9\-7\-5----5/7\---5\---3----3/-5\-|      
E:------------------------------------------------|

e:---------------------------------------------|   
B:---------------------------------------------|   
G:-\4------------4--4--4/-5--5--5--5/-7--7--7--|   
D:--x------------x--x--x--x--x--x--x--x--x--x--|   
A:-\2------------2--2--2/-3--3--3--3/-5--5--5--|   
E:---------------------------------------------|


e:---------------------------------------------| 
B:---------------------------------------------|
G:--7/11-11-11-11-11-11-11-11--14--14--14--14--| 
D:--x--x--x--x--x--x--x--x--x---x---x---x---x--| 
A:--5/-9--9--9--9--9--9--9--9--12--12--12--12--|                  
E:---------------------------------------------|

e:-------------------------------------------------------|
B:----------------------13b(15)--13V~~~~~~---------------|
G:--14--14/-16-\12---------------------------------------|
D:---x---x---x---x---------------------------------------|
A:--12--12/-14-\10---------------------------------------|
E:-------------------------------------------------------| 


e:-------------------------------------------------|   
B:-------------------------------------------------|   
G:--9/11-11-11-11\-9\-7----7/-9\---7\---5----5/-7\-|   
D:--x--x--x--x--x--x--x----x--x----x----x----x--x--|   
A:--7/-9--9--9--9\-7\-5----5/-7\---5\---3----3/-5\-|    
E:-------------------------------------------------|   


e:--------------------------------------------|
B:--------------------------------------------|
B:-\4------------4----4/-5--5--5--5/-7--7--7--| 
D:--x------------x----x--x--x--x--x--x--x--x--|
A:-\2------------2----2/-3--3--3--3/-5--5--5--|
E:--------------------------------------------| 


e:---------------------------------------------  
B:---------------------------------------------  
G:--7/11-11-11-11-11-11-11-11/-14--14--14--14--  
D:--x--x--x--x--x--x--x--x--x---x---x---x---x--   
A:--5/-9--9--9--9--9--9--9--9/-12--12--12--12--  
E:---------------------------------------------


e:-------------------------------------------------------|
B:-------------------------------------------------------|
G:--14--14/-16-\12---12----5----------------4------------|
D:---x---x---x---x----x----x----------------x------------|
A:--12--12/-14-\10---10----3----------------2------------|
E:-------------------------------------------------------| 

Interlude played right after Solo at 2:22:
e:----------------------------------------------------|
B:----------------------------------------------------|
G:--9-9-9-9-9-9-9-9--7-7-7-7-7-7-7-7--6-6-6-6-6-6-6-6-|
D:--9-9-9-9-9-9-9-9--7-7-7-7-7-7-7-7--6-6-6-6-6-6-6-6-|
A:--7-7-7-7-7-7-7-7--5-5-5-5-5-5-5-5--4-4-4-4-4-4-4-4-|
E:----------------------------------------------------|
	
e:----------------------------------------------------|
B:----------------------------------------------------|
G:--5-5-5-5-5-5-5-5-----------------------------------|
D:--5-5-5-5-5-5-5-5--5-5-5-5-5-5-5-5--4-4-4-4-4-4-4-4-|
A:--3-3-3-3-3-3-3-3--5-5-5-5-5-5-5-5--4-4-4-4-4-4-4-4-|
E:-------------------5-5-5-5-5-5-5-5--4-4-4-4-4-4-4-4-|
		    
e:-----------------------------------|
B:-----------------------------------|
G:-----------------------------------|
D:--3-3-3-3-3-3-3-3--3-3-3-3-3-3-3-3-|
A:--3-3-3-3-3-3-3-3--3-3-3-3-3-3-3-3-|
E:--3-3-3-3-3-3-3-3--3-3-3-3-3-3-3-3-|

Back to Intro at 2:44:
e:----------3-------------3-----3-------------------------|
B:----------3-------------3-----3-------------------------|
G:------2-----------0h2-------0---0-------------0h2p0-----|
D:--0-----------0-3------------------------0h2--------2p0-|
A:--------------------------2-------2-2h3-----------------|
D:--------------------------------------------------------|

Chorus repeated twice(Played again at 3:03) 
e:---------------------------------|
B:--1*---1*-------1--------3---1---|
G:--0----2--------0--------0---2---|
D:--2----2------2--------4-----2---|
A:--3----0----3------3-5-------0---|
E:---------------------------------|
*-Hold Note

Play this Part twice starting at 3:26:

e:----------------------------------|
B:--10--10--10--10--10--10--10--10--|        
G:--11--11--11--11--11--11--11--11--|        
D:----------------------------------|
A:----------------------------------|
E:----------------------------------|

e:----------------------------------|
B:--10--10--10--10--10--10--10--10--|        
G:--12--12--12--12--10--12--12--12--|        
D:----------------------------------|
A:----------------------------------|
E:----------------------------------|

e:----------------------------------|
B:--10--10--10--10--10--10--10--10--|        
G:--10--10--10--10--10--10--10--10--|        
D:----------------------------------|
A:----------------------------------|
E:----------------------------------|

e:----------------------------------|
B:--10--10--10--10--10--10--10--10--|        
G:--11--11--11--11--11--11--11--11--|        
D:----------------------------------|
A:----------------------------------|
E:----------------------------------|

e:----------------------------------|
B:--10--10--10--10--10--10--10--10--|        
G:--11--11--11--11--11--11--11--11--|        
D:----------------------------------|
A:----------------------------------|
E:----------------------------------|

e:----------------------------------|
B:--10--10--10--10--10--10--10--10--|        
G:--12--12--12--12--12--12--12--12--|        
D:----------------------------------|
A:----------------------------------|
E:----------------------------------|

e:----------------------------------|
B:--10--10--10--10--10--10--10--10--|        
G:--10--10--10--10--10--10--10--10--|        
D:----------------------------------|
A:----------------------------------|
E:----------------------------------|

e:----------------------------------|
B:---5-5-5-5-5-5-5-5-5-5-5-5-5-5-5--|        
G:---5-5-5-5-5-5-5-5-5-5-5-5-5-5-5--|        
D:----------------------------------|
A:----------------------------------|
E:----------------------------------|

Outro:
e:------------------------------------0-----------------|
B:------3-------3---------------------3-----------------|
G:----2-------2---------0--------0----2-----------------|
D:--0-----0-3-----3---0--------0---0--0---0-------0-----|
A:------------------1-----1-12----------0---0---2-------|
E:--------------------------------------------3----3-2-0|

_______________________________________________________________
12. Higher Ground

Main Riff
-------------------------------------------------------------
-------------------------------------------------------------
-X-12-X-12----X-X-X-14p12-----X-12-X-12---------12-------12--
-X-12-X-12----X-X-X-------12--X-12-X-12---------12-------12--
------------------------------------------12h14----12h14-----
-------------------------------------------------------------

-------------------------------------------------------------------
---------------------------------------15-15-15-15-15-15-14-14-14--
-X-12-X-12----X-X-X-14p12--------------14-14-14-14-14-14-14-14-14--
-X-12-X-12----X-X-X-------12---X-14-14-14-14-14-14-14-14-14-14-14--
-------------------------------------------------------------------
-------------------------------------------------------------------

----------------------------------------------------------
---------------------------------------15-15-15-14-14-14--
-X-12-X-12----X-X-X-14p12---X-12-X-12--14-14-14-14-14-14--
-X-12-X-12----X-X-X---------X-12-X-12--14-14-14-14-14-14--
----------------------------------------------------------
----------------------------------------------------------

Verse riff 0:21
 Pm_____________            Pm_______________
--------------------------------------------------------
--------------------------------------------------------
--------------------------------------------------------
-------------------5-----7---------------------5-----7--
-------------------5-----7---------------------5-----7--
-0--0--0--0--0--0--3-----5---0--0--0--0--0--0--3-----5--

--------------------------------------------------------
--------------------------------------------------------
------2------2---4--------2--------------------------2--
-2h4-----4---2---4---2h4-----4----4--2-----------4---2--
----------------------------------------4--3--2------0--
--------------------------------------------------------

------------------------------
------------------------------
-7--7--7--7--7--7-----6----5--
-7--7--7--7--7--7-----6----5--
-5--5--5--5--5--5-----4----3--
------------------------------

Chorus 1:16
                   Pm______      Pm_____
------------------------------------------------------------------
------------------------------------------------------------------
-----------------------------12-----------12----------------------
-7-------5b1/4---------------12-----------12---7-----5--7---5-----
-7---7----------7------------------------------7--7------------7--
--------------------0--0--0------0--0--0--------------------------
Pm______     Pm______                           Pm______
--------------------------------------------------------------
--------------------------------------------------------------
----------12-----------12---------------------------------12--
----------12-----------12---7-----5-----------------------12--
----------------------------7--7-----7/5---4~~----------------
-0--0--0------0--0--0----------------------------0--0--0------
Pm______
----------------------------------------------------------------------
----------------------------------------------------------------------
----------12---11--------11-11-11-12-12-12-12-12-12-12-12-12-12-12-12-
----------12---11--------11-11-11-12-12-12-12-12-12-12-12-12-12-12-12-
---------------9---------9--9--9--10-10-10-10-10-10-10-10-10-10-10-10-
-0--0--0--------------------------------------------------------------

Riff Variation 2:23
----------------------------------------------------------------------
------------X-X-X-12b1/4----------------------------------------------
-X-12-------X-X-X-12b1/4---------------------14b16b14-12--------------
-X-12--14~~---------------X-12h14-14~~-X-X-X--------------12~~--14~~--
----------------------------------------------------------------------
----------------------------------------------------------------------

---------------------------------------
-X-X-X-12b1/4----------------------14--
-X-X-X-12b1/4----------------------14--
---------------X-12h14-14~~--X-X-X-----
---------------------------------------
---------------------------------------

Riff Playout 2:44
---------------------------------------------------------------
---------------------------------------------------------------
-X-12---------------------------X-12-------15-15-15--14-14-14--
-X-12h14-14~~-------------------X-12--14---16-16-16--14-14-14--
---------------12/14-12/14--10---------------------------------
---------------------------------------------------------------

-----------------------------------------------------------
---------------------------------------------------14b1/4--
-X-12----------------------------------------------14b1/4--
-X-12h14-14~~--------12-14p12----X-12-14---X-X-X-----------
---------------12/14----------14-----------X-X-X-----------
-----------------------------------------------------------

-----------------------------------------------------------------------
-----------------------------------------------------------------------
-x-12---------------------------X-12------X-X-X-X-X-X--X---------------
-X-12h14-14~~-------------------X-12--14--X-X-X-X-X-X--X-12--14--------
---------------12/14-12/14--10------------X-X-X-X-X-X-----------12/14--
-----------------------------------------------------------------------

--------------------------------------------------------------------------
-------------------------15-15-15--14-14-14-------------------------------
-12-----------X-12-------16-16-16--14-14-14---X---------------12----------
-12-14p12-----X-12--14------------------------X-12--14--------12-14p12----
----------14-------------------------------------------12/14-----------14-
--------------------------------------------------------------------------

--------------------------------------------------------------------------
-------------X-X-X-15p14----------------------------------------------15--
-------------X-X-X-16p14--X---------------12----------------------14b-14b-
-X-12-12-14---------------X-12--14--------12-14p12-----X--12--14----------
-----------------------------------12/14-----------14---------------------
--------------------------------------------------------------------------

----------------------------------------------------------------------
-----------------------------------------14-14-----14-----------------
-X-12--------------------------X-12-------------16b18--X--------------
-X-12h14-14~~------------------X-12--14----------------X-12--14-------
---------------12/14-12/14-10-----------------------------------12/14-
----------------------------------------------------------------------

-----------------------15-15-15-15-15-15--
-----------------------15-15-15-15-15-15--
-12-14p12--------------14-14-14-14-14-14--
-12-------14------14----------------------
------------------------------------------
--------------10--------------------------

Outro 3:11

--------------------------------------------------------------------
--------------------------------------------------------------------
----------12-14-12----------------12-14-12--------------------------
-14-14-14-12-14-12--14--14-12-14--12-14-12---14--14-14-14-14-14-14--
-14-14-14-----------14--14-12-14-------------14--14-14-14-14-14-14--
--------------------------------------------------------------------

--------------------------
--------------------------
-12---14-----12-----------
-12---14-----12-------14--
----------------------14--
--------------------------
__________________________________________________________________________
13.Universally speaking

Universally speaking

D:xx0232
Em7:022033
A:x02220
C#m:x46654
G:320033
Bm:x24432

Intro+chorus+verse

D  and   Em7

Bridge

A   C#m   G   Bm
on one part Am is used at the end i think

Solo 

---------------------------------------------------------
---------------------------------------------------------
---------------------------------------------------------
-16-14-12-14-12-11-12-11-12-14-12-11-12-14\7-7-7-7-7-7~--
---------------------------------------------------------
---------------------------------------------------------


--------------------------------------------------------------
--------------------------------------------------------------
--------------------------------------------------------------
-16-14-12-14-12-11-12-11-12-14-12-11-12-14/19-19-19-19-19-19~-
--------------------------------------------------------------
--------------------------------------------------------------


--------------------------------------------------------------
--------------------------------------------------------------
--------------------------------------------------------------
-16-14-12-14-12-11-12-11-12-14-12-11-12-11\7-7-7-7-7-7-7-5-4--
--------------------------------------------------------------
--------------------------------------------------------------


----------------------
----------------------
----------------------
-5b6-0-0-7-7/12-------
----------------------
----------------------

_________________________________________________________________________
14.Road trippin'

-----3----------------3----------------3-----------------------------
-------------0-----------------0-----------------------5-------------
--------------------------------------------------------------0------
-2--------2-----2----------2------2--------2-------------------------
-----------------------------------------------3----3-----3-------3--
-----0----------------0----------------------------------------------

-------------------------
-4----------------4------
----------0--------------
-------------------------
-2----2------2---------2-
-------------------------


Part 2

-------3---------------3--------5-------3------------------------------
----------------0-------------------------------------5----------------
----------------------------------------------------------------0------
---2--------2-------2-------2------2-------2---------------------------
-----------------------------------------------3------3-----3-------3--
-------0---------------0-----------------------------------------------

---------------------------
-4-------------------4-----
------------0--------------
---------------------------
-2-----2--------2--------2-
---------------------------

Part 3

--0-----------------0---------------------------------------------------------
-----------1-----------------3----------------3-------5----------------5------
--------------------------------------0------------------------0--------------
-------2-----------------2---------0---------------0-------5----------------5-
--0------------0-------------2------------2-----------3------------3----------
------------------------------------------------------------------------------

-----------------------------
-12---------12---------------
-----12--------------12------
--------12----------------12-
-10-------------10-----------
-----------------------------


Part 4

-------------------------------------------------------------------------
-8------------8-----------------------5------------5---7---------------7-
--------7-----------6-------------6----------5------------------5--------
-----9----------------------5-------------5-----------------7------------
-7---------7-------------7------------3---------3------5-----------5-----
--------------------5----------5-----------------------------------------

-------------------------------------------------------------------
-8--------10------8------------------------5---------------------5-
----------------------6--------------6---------------5-------------
------9----------------------5-------------------5-----------------
-7-------------7----------7----------------3--------------3--------
----------------------5----------5---------------------------------

-5---------------5---5-----------------5------8--------5--------
---------4--------------------4--------4------4--------4--------
------5---------------------------------------------------------
-4-----------4-------4-----4------4--------4------4--------4/7--
----------------------------------------------------------------
----------------------------------------------------------------

-8----------11---------8-----5-------2----------
-7----------10---------7-----4-------1----------
-8----------11---------8-----5-------2----------
--------10---------7------4------1----------1---
------------------------------------------------
------------------------------------------------

Part 5

--------3-----------------3----------------3-----------------3----------
------------------0----------------0-----------------0---------------0--
------------------------------------------------------------------------
---2---------2--------2--------2-------2---------2-------2-------2------
------------------------------------------------------------------------
------------------------------------------------------------------------

-(3)----------------3-------------------3-----------
----------0------------------0-------------------0--
----------------------------------------------------
-(2)--2--------2---------2---------2---------2------
----------------------------------------------------
----------------------------------------------------
__________________________________________________________________________
15.Fortune faded

INTRO

Played fast
e|----------------------------------
B|----------------------------------
G|----------------------------------
D|-4-4-4-4-4-4-4-4-4-4-4-4-4-4-4-4--
A|-4-4-4-4-4-4-4-4-4-4-4-4-4-4-4-4--
E|-2-2-2-2-2-2-2-2-2-2-2-2-2-2-2-2--

VERSE 1

e|-----------------------------------------------------------------
B|--------------------------------------------------------14-14-14-
G|---11----------------11---------------14p11-14p11-14p11----------
D|-9----11-----------9----11-9-------------------------------------
A|-----------------------------------------------------------------
E|-----------------------------------------------------------------

e|-----------------------------------------------------------------
B|-----------------------------------------------------------------
G|---11----------------11---------------14----11----14----11\------
D|-9----11-----------9----11-9-------------------------------------
A|-----------------------------------------------------------------
E|-----------------------------------------------------------------

e|----------------------------
B|----------------------------
G|----------------------------
D|-12-X-12-12-----7--7--7-----
A|-12-X-12-12-----7--7--7-----
E|-10-X-10-10-----5--5--5-----

e|-------------------------------------------------------------------------|
B|-------------------------------------------------------------------------|
G|---11----------------11---------------14----11----14----11\--------------|
D|-9----11-----------9----11-9---------------------------------------------|
A|-------------------------------------------------------------------------|
E|-------------------------------------------------------------------------|

e|----------------------------
B|----------------------------
G|----------------------------
D|-12-X-12-12-----7--7--7-----
A|-12-X-12-12-----7--7--7-----
E|-10-X-10-10-----5--5--5-----

e|-------------------------------------------------------------------------|
B|-------------------------------------------------------------------------|
G|---11---------------11--------14p11-14p11-14p11--14p11-14p11-14p11-14p11\|
D|-9----11----------9---11-9-----------------------------------------------|
A|-------------------------------------------------------------------------|
E|-------------------------------------------------------------------------|

CHORUS

e|----------------------------------------------------------
B|----------------------------------------------------------
G|----------------------------------------------------------
D|-7-7-7-7-7-7-7-7-----5-5-5-5-5-5-5-5-----9-9-9-9-9-9-9-9--
A|-7-7-7-7-7-7-7-7-----5-5-5-5-5-5-5-5-----9-9-9-9-9-9-9-9--
E|-5-5-5-5-5-5-5-5-----3-3-3-3-3-3-3-3-----7-7-7-7-7-7-7-7--

e|---------------------------------------------------
B|---------------------------------------------------
G|---------------------------------------------------
D|-7-7-7-7-7-7-7-7-----5-5-5-5-5-5-5-5-----9--9-9-9--
A|-7-7-7-7-7-7-7-7-----5-5-5-5-5-5-5-5-----9--9-9-9--
E|-5-5-5-5-5-5-5-5-----3-3-3-3-3-3-3-3-----7--7-7-7--
I am not sure about this if i think it is different i will change it later

VERSE 2

e|-------------------------------------------------------------------------|
B|--------------------------------------------------------14-14-14---------|
G|---11----------------11---------------14p11-14p11-14p11------------------|
D|-9----11-----------9----11-9---------------------------------------------|
A|-------------------------------------------------------------------------|
E|-------------------------------------------------------------------------|

e|-------------------------------------------------------------------------|
B|-------------------------------------------------------------------------|
G|---11----------------11---------------14----11----14----11\--------------|
D|-9----11-----------9----11-9---------------------------------------------|
A|-------------------------------------------------------------------------|
E|-------------------------------------------------------------------------|

e|----------------------------
B|----------------------------
G|----------------------------
D|-12-X-12-12-----7--7--7-----
A|-12-X-12-12-----7--7--7-----
E|-10-X-10-10-----5--5--5-----

e|-------------------------------------------------------------------------|
B|-------------------------------------------------------------------------|
G|---11---------------11--------14p11-14p11-14p11--14p11-14p11-14p11-14p11\|
D|-9----11----------9---11-9-----------------------------------------------|
A|-------------------------------------------------------------------------|
E|-------------------------------------------------------------------------|

CHORUS


e|----------------------------------------------------------
B|----------------------------------------------------------
G|----------------------------------------------------------
D|-7-7-7-7-7-7-7-7-----5-5-5-5-5-5-5-5-----9-9-9-9-9-9-9-9--
A|-7-7-7-7-7-7-7-7-----5-5-5-5-5-5-5-5-----9-9-9-9-9-9-9-9--
E|-5-5-5-5-5-5-5-5-----3-3-3-3-3-3-3-3-----7-7-7-7-7-7-7-7--

e|---------------------------------------------------
B|---------------------------------------------------
G|---------------------------------------------------
D|-7-7-7-7-7-7-7-7-----5-5-5-5-5-5-5-5-----9--9-9-9--
A|-7-7-7-7-7-7-7-7-----5-5-5-5-5-5-5-5-----9--9-9-9--
E|-5-5-5-5-5-5-5-5-----3-3-3-3-3-3-3-3-----7--7-7-7--

BRIDGE


Played fast
e|----------------------------------
B|----------------------------------
G|----------------------------------
D|-4-4-4-4-4-4-4-4-4-4-4-4-4-4-4-4--
A|-4-4-4-4-4-4-4-4-4-4-4-4-4-4-4-4--
E|-2-2-2-2-2-2-2-2-2-2-2-2-2-2-2-2--x4

CHORUS

e|----------------------------------------------------------
B|----------------------------------------------------------
G|----------------------------------------------------------
D|-7-7-7-7-7-7-7-7-----5-5-5-5-5-5-5-5-----9-9-9-9-9-9-9-9--
A|-7-7-7-7-7-7-7-7-----5-5-5-5-5-5-5-5-----9-9-9-9-9-9-9-9--
E|-5-5-5-5-5-5-5-5-----3-3-3-3-3-3-3-3-----7-7-7-7-7-7-7-7--x3

e|---------------------------------------------------
B|---------------------------------------------------
G|---------------------------------------------------
D|-7-7-7-7-7-7-7-7-----5-5-5-5-5-5-5-5-----9--9-9-9--
A|-7-7-7-7-7-7-7-7-----5-5-5-5-5-5-5-5-----9--9-9-9--
E|-5-5-5-5-5-5-5-5-----3-3-3-3-3-3-3-3-----7--7-7-7--
____________________________________________________________________________
16.save the population

Intro 
E-------------|-10----10----|---------------8-----8----|-----------------------------
B-8-11--------|-------------|-8-11---------------------|-8-11---------10/11\10-8-863-
D------10-8-7-|---(7)----(7)|------10-8-7-----(7)---(7)|------10-8-7-----------------
G-------------|-------------|--------------------------|-----------------------------
A-------------|-------------|--------------------------|-----------------------------
E-------------|-------------|--------------------------|-----------------------------	

Pre-Verse
E-------------|-131313131313|--------------11---11-----|--------------101010101010---
B-8-11--------|-------------|-8-11---------------------|-8-11----------7-7-7-7-7-7---
D-----10-8-7--|-------------|------10-8-7----(7)---(7)-|------10-8-7---7-7-7-7-7-7---
G-------------|-------------|--------------------------|-----------------------------
A-------------|-------------|--------------------------|-----------------------------
E-------------|-------------|--------------------------|-----------------------------
	

Part 3 
E--8-8-8-8-8-8-----6-6-6-6-6-6-----5-5-5-5-5-5---4-4-4-4-4-4-----
B----------------------------------------------------------------
D----------------------------------------------------------------
G----------------------------------------------------------------
A----------------------------------------------------------------
E----------------------------------------------------------------

Verse
E-------------|-------------|--------------------------|-----------------------------
B-------------|-------------|--------------------------|--------------7-7/8--8--10---
D-------------|--3/55555----|---------------5/77777----|--------------7----7----11---
G-5-8---------|-------------|-5-8----------------------|-5-8-------------------------
A-----6-5-----|-------------|-----6-5------------------|-----6-5---------------------
E-------------|-------------|--------------------------|-----------------------------
	

Pre-Chorus
E--3-3-3-3-3--6-6-6-6-6--3-3-3-3-3--6-6-6-6-6--------------
B--3-3-3-3-3--6-6-6-6-6--3-3-3-3-3--6-6-6-6-6--------------
D--3-3-3-3-3--7-7-7-7-7--3-3-3-3-3--7-7-7-7-7--------------
G-------------8-8-8-8-8-------------8-8-8-8-8--------------
A----------------------------------------------------------
E----------------------------------------------------------

E--11-11-11-11-11-11-11-11-11-11--8-8-8-8-8-8-8-8-8-8------
B--11-11-11-11-11-11-11-11-11-11--8-8-8-8-8-8-8-8-8-8------
D--12-12-12-12-12-12-12-12-12-12---------------------------
G--13-13-13-13-13-13-13-13-13-13---------------------------
A----------------------------------------------------------
E----------------------------------------------------------
play this next part faster as you go on
E--10-10-10-10-10-10-10-10-10-10-
B--10-10-10-10-10-10-10-10-10-10-
D--11-11-11-11-11-11-11-11-11-11-
G--12-12-12-12-12-12-12-12-12-12-
A--------------------------------
E--------------------------------

Chorus 
E--15------------------------------------------------------
B-----15-------15----13-15-------13-15-------13-15---------
D--------12-12----12-------12-12-------12-12---------------
G----------------------------------------------------------
A----------------------------------------------------------
E----------------------------------------------------------
repeat this

 End of Chorus
|15-15-15-15-15-15-15-15-
|15-15-15-15-15-15-15-15-
|------------------------
|------------------------
|------------------------
|------------------------




Comments