Red Hot Chili Peppers - Tearjerker Chords & Tabs

 

Tearjerker Chords & Tabs

Red Hot Chili Peppers Chords & Tabs

Version: 2 Type: Tab 0 ratings
1 star 2 stars 3 stars 4 stars 5 stars
comments

Tearjerker Tab

Red Hot Chili Peppers
Tearjerker

Intro
-----------------------------------------------------------------------
---3-------------0-----------0---------0-------------------------------
---2-----------3---3-------3---3-------3----11\9----9\7----7\5----4b4--
---0---------2-------2---2-------2-----2-------------------------------
-----------0-----------0-----------0---0-------------------------------
-----------------------------------------------------------------------
                                           |play this part very slowly|
--------------------------------------------------------------
--------------------------------------------------------------
---4b4\2/7----------------------------------------------------
--------------------------------------------------------------
-------------------------------------------------------7\9----
--------------------------------------------------------------
               "Could you turn up the track a little, please?"

---------10---10-10-----------------------------------10-10----------10-
---------10---10-10------------12-10----14-----14--10-------------10-10-
------11-11---11-11-11h12p11---12-11----11-----11--11-------11h12-11----
---12------------------------------------------12--12-------------------
------------------------------------------------------------------------
------------------------------------------------------------------------

---------------10---10-10---12p10------------------------
---------------10---10-10---------10----14---------------
--11h12p11------------------------------11---------------
----------12---------------------------------------------
---------------------------------------------------------
---------------------------------------------------------

------14-----12-----10-----12----------10-----10------------------------
-10-----10-----10-----10-----10----14----14-----14--10------------------
-11-------11-----11-----11-----11----------11-----11----11--11h12-11-12-
-12-------------------------------------------------------12------------
------------------------------------------------------------------------
------------------------------------------------------------------------

-------------10--------------------------------x------
----------------10---------------14------------x------
--11h12p11---------11h12p11------11------------x------
----------12---------------------12------------x------
------------------------------------------------------
------------------------------------------------------

Verse 1
--------------------------------3---3/5----7p5-----------------------2-
----7----8p7---5------5----------3--3/5-5------5----8p7-8p7---5------3-
----7-------7-------6-------------4-4/6--6----------7-------7---6----4-
----7--------9-------7----/5--------------------------------7--------4-
---------------------------------------------------x-----------------2-
-----------------------------------------------------------------------

------------------------3p2---2-5---3p2---5---------5\3/5--5---7p5-----
--------3p2-------------3---3-----3-----3--------------------5-----7b7-
--------------4-------2------------------------------------------------
--------------------0--------------------------------------------------
-----------------------------------------------------------------------
-----------------------------------------------------------------------
[ Tab from: http://www.guitartabs.cc/tabs/r/red_hot_chili_peppers/tearjerker_tab_ver_2.html ]
--------5--7--2--------------------------------------------------------
------5-------3--------------------------------------------------------
--------------4--------6-6----7--(7)---------6--6--7-------6--6--11h12-
--------------4--------7-7----8--(8)---------7--7--8-------7--7--------
--------------2--------------------------------------------------------
-----------------------------------------------------------------------

Verse 2 & Verse 3
----------------------------10p9----------------7---------------------
--------12--10----10----x-x-10---10(10)---------8---------------------
--11----12--11----11----x-x----------------7/9----7-----------2-----2-
------------------------------------------------------------2-----2---
----------------------------------------------------------0-----0-----
----------------------------------------------------------------------

-------10--10-10--10--9--------2--------------------------10------9--9-
---------10-----10---10-10-----3-----------3p2------------10-----10-10-
---------------------11--------4------------------4-------11-----11-11-
----0-----------------0--------4---------------------------------------
----------------------0--------2---------------------------------------
-----------------------------------------------------------------------

--------------------------------10----10-------10-----14-----14---------
---8-------8----8p7---10-----------10----------10-----15----------------
-----7---7----------9-------9b--------------9---------16----------16-16-
-------9----------------------------------------------------------------
------------------------------------------------------------------------
------------------------------------------------------------------------

Chorus
----------------------------------------------------------------
-4/9---999--999--7--77/9----9--9/11111111/12121212/14141414\9--- 
----------------------------------------------------------------
----------------------------------------------------------------
-2/7---777--777--5--55/7----7--7/-9-9-9-9/10101010/12121212\7---
----------------------------------------------------------------

----------------------------------------------------------------
-999--999--7--7--7/9----99--9/11-11-11-11-14-14-12-12-12-12\----
----------------------------------------------------------------
----------------------------------------------------------------
-777--777--5--5--5/7----77--7/-9--9--9--9-12-12-10-10-10-10\----
----------------------------------------------------------------

----------------------------------------------------------------
-/9--999--999--7--77/9----------9-9-9-9-9-9-9-9-9----9----9-----
----------------------------------------------------------------
----------------------------------------------------------------
-/7--777--777--5--55/7----------7-7-7-7-7-7-7-7-7----7----7-----
----------------------------------------------------------------

-(2-----------------------------------------------------------------------
-(2)----------------------------------------------------------------------
-(2)----6-6---7----(7)-----6-6---7----6-6---(7)---6-6---7-----9--9--xx99--
-(4)----7-7---8----(8)-----7-7---8----7-7---(8)---7-7---------------------
-(4)----------------------------------------------------5-----7--7--xx77--
-(2)----------------------------------------------------------------------                   
 |----------play this part very slowly-------------|

I was too lazy to do the solo and outro, maybe soon
Enjoy the tab
Rob Postma
Comments