Red Hot Chili Peppers - Suck My Kiss Chords & Tabs

 

Suck My Kiss Chords & Tabs

Red Hot Chili Peppers Chords & Tabs

Version: 2 Type: Tab 5 ratings
1 star 2 stars 3 stars 4 stars 5 stars
comments

Suck My Kiss Tab

   
band:red hot chili peppers
song:suck my kiss
h=hammer-on
p=pull-off

ditortion
intro
-----------------------------------------------------------------------
-----------------------------------------------------------------------
----0-----x-x-----0----x-x-----0-----x-x--------------------------7/9-9
----0-----x-x-----0----x-x-----0-----x-x----------3-3-3-3-5/7-7-7------
----1-----x-x-----1----x-x-----1-----x-x--3/5-5-5----------------------
1-3---1-3-----1-3---1-3----1-3---1-3-----------------------------------
verse
-----------------------------------------
-----------------------------------------
-----------------------------------------
-----------------------------------------
------------------------1h3p1------------
1-3-3-1-3-3-1-3-3-1-3-3-------1----------
interlude
----4------4---5-6-
----4------4---5-6-
--3------3---4-----
--3------3---4-----
-------------------
-------------------
chorus 				
-------3-3-3-3----------
-------3-3-3-3----------
-1-1---4-2-4-2----2-2---
-2-2--------------2-2---
-2-2--------------0-0---
-0-0-----------0--------

-------3-3-3-3---------------
-------3-3-3-3----------4/5\4
-1-1---4-2-4-2----2-2---3/4\3
-2-2--------------2-2--------
-2-2--------------0-0--------
-0-0-----------0-------------

-------3-3-3-3------------------
-------3-3-3-3------------------
-1-1---4-2-4-2----2-2-----------
-2-2--------------2-2---2-2-2-x-
-2-2--------------0-0---2-2-2-x-
-0-0-----------0--------0-0-0-x-

-------3-3-3-3----------the second-------------------
-------3-3-3-3----------time play the----------------
-1-1---4-2-4-2----2-2---chorus then add----0---------
-2-2--------------2-2---this---------------0---------
-2-2--------------0-0----------------------1---------
-0-0-----------0-------------------------------------

solo
-----------------------------------------------------
-----------------------------------------------------
-15h17p15p0-0-0-0-0-15h17p15p0-0-0-0-0-15h17p15p0-0-0
-----------------------------------------------------
-----------------------------------------------------
-----------------------------------------------------
[ Tab from: http://www.guitartabs.cc/tabs/r/red_hot_chili_peppers/suck_my_kiss_tab_ver_2.html ]
-----------------------------------------------------
-----------------------------------------------------
-15h17p15p0-0-0-0-0-15h17p15p0-0-0-0-0-15h17p15p0-0-0
-----------------------------------------------------
-----------------------------------------------------
-----------------------------------------------------

------------------------------------------------------------10-10
------------------------------------------------------------11-11
-15p0-0-0-0-0-15p0-0-0-0-0-15p0-0-0-10h12p0-10h12p0-10h12p0------
-----------------------------------------------------------------
-----------------------------------------------------------------
-----------------------------------------------------------------

-10/11-10-10/11-10-10/11-10-10/11-10-10/11-10-10/11-10-10h12--10-10
-11/12----11/12----11/12----11/12----11/12----11/12-----------11-11
-------------------------------------------------------------------
-------------------------------------------------------------------
-------------------------------------------------------------------
-------------------------------------------------------------------

-10/11-10-10/11-10-10/11-10-10/11-10-10/11-10-10/11-10-10h12--10-10
-11/12----11/12----11/12----11/12----11/12----11/12-----------11-11
-------------------------------------------------------------------
-------------------------------------------------------------------
-------------------------------------------------------------------
-------------------------------------------------------------------

-10/11-10-10/11-10-10/11-10-10/11-10-10/11-10-10/11-10-10h12--10-10
-11/12----11/12----11/12----11/12----11/12----11/12-----------11-11
-------------------------------------------------------------------
-------------------------------------------------------------------
-------------------------------------------------------------------
-------------------------------------------------------------------

-13-13-13-15-15-15-17-17-19-19-20-20
-14-14-14-16-16-16-18-18-20-20-21-21
------------------------------------
------------------------------------
------------------------------------
------------------------------------
Comments