Red Hot Chili Peppers - Suck My Kiss Chords & Tabs

 

Suck My Kiss Chords & Tabs

Red Hot Chili Peppers Chords & Tabs

Version: 4 Type: Bass Tab 0 ratings
1 star 2 stars 3 stars 4 stars 5 stars
comments

Suck My Kiss Bass Tab

Red Hot Chili Peppers
Suck My Kiss
Tabbed by:Schaar
E-mail:jerrens@charter.net
Standard Tuning

Intro                Play 2 Times
G|----------------------------------------------------------------------7h99-
D|-----------------------------------------------------------3333-5/777------
A|-------1--------X--------1--------X--------1-------XX-3/555----------------
E|-1--3-----1--3---X-1--3-----1--3---X-1--3-----1--3-------------------------

Verse                Play 4 Times
G|-------------------------------------------
D|-------------------------------------------
A|------------------------------1-1h3-1------
E|-1--3-3--1--3-3--1--3-3--1--33-------------

PreChorus
G|---------------------------------------------------------------------------D|---3----(3)--------3----3------4-4-4/--------------------------------------A|----------------3----------3-----------------------------------------------E|---------------------------------------------------------------------------

Verse                Play 2 Times
G|--------------------------------------------
D|--------------------------------------------
A|-----------------------------1-1h3-1--------
E|-1--3-3--1--3-3--1--3-3--1-33---------------

PreChorus2
G|--------------------------------------------
D|---3-----3---------3-3-3-----4-4-6/---------
A|----------------3---------3-----------------
E|--------------------------------------------

G|--------------------------------------------
D|--------------------------------------------
A|---------------------1----------------------
E|-1--3-3--1-3-3--1--3------------------------

Chorus              Play 3 Times
G|--------------------------------------------
D|----------------5--5------------------------
A|------------------5--5----------------------
E|--0--0------------------0-5-5---------------

G|--------------------------------------------------
D|------------------------------------5---5---------
A|--------------------------------------5---5-------
E|---0----0----0--------X-0--0-----------------5-5--

Verse              Play 4 Times
G|-----------------------------------------
D|-----------------------------------------
A|-------------------------------1-1h3-1---
E|-1--3-3--1--3-3---1--3-3---1-33----------

G|------------------------------------------
D|---3-----3---------3-3-3-----4-4-6/-------
A|----------------3---------3---------------
E|------------------------------------------

Verse             Play 2 Times
G|-----------------------------------------
D|-----------------------------------------
A|-------------------------------1-1h3-1---
E|-1--3-3--1--3-3---1--3-3---1-33----------
[ Tab from: http://www.guitartabs.cc/tabs/r/red_hot_chili_peppers/suck_my_kiss_btab_ver_4.html ]
G|-------------------------------------------
D|---3-----3---------3-3-3-----4-4-6/--------
A|----------------3---------3----------------
E|-------------------------------------------

G|------------------------------------------                                D|------------------------------------------
A|-----------------------1------------------
E|-1--3-3--1--3-3---1--3--------------------

Chorus           Play 3 Times
G|----------------------------------------------
D|------------------5---5-----------------------
A|--------------------5---5---------------------
G|--0--0----------------------0-5-5-------------

G|----------------------------------------------
D|-------------------------------5---5----------
A|---------------------------------5---5------1-
E|---0----------0---------0--0------------5-5---

Guitar Lead                 Play 2 Times
G|----------------------------------------------------------------------7h99-
D|------------------------------------------------------------3333-5/777-----
A|-------1--------X--------1--------X---------1-------XX-3/555---------------
E|-1--3-----1--3---X-1--3-----1--3---X--1--3-----1--3------------------------


Verse        Play 2 Times
G|-----------------------------------------------
D|-----------------------------------------------
A|--------------------------------1-1h3-1--------
E|-1--3-3--1--3-3--1---3-3---1--33---------------


G|-----------------------------------------------
D|------3---(3)--3-3-3-----3-3-3-----4-4-6/------
A|----------------------3---------3--------------
E|-----------------------------------------------


Verse         Play 2 Times
G|-------------------------------------------------
D|-------------------------------------------------
A|--------------------------------1-1h3-1----------
E|-1--3-3--1--3-3---1--3-3---1--33-----------------


G|-------------------------------------------------
D|------3---(3)-----------3-3-3-----4-4-6/---------
A|---------------------3---------3-----------------
E|-------------------------------------------------


G|-------------------------------------------------
D|-------------------------------------------------
A|-----------------------1-------------------------
E|-1--3-3--1--3-3--1--3----------------------------

Chorus           Play 3 Times
G|-------------------------------------------------
D|--------------5---5------------------------------
A|----------------5---5----------------------------
E|--0--0-----------------0-5-5---------------------


G|---------------------------------------------------
D|-----------------------------------5---5-----------
A|-------------------------------------5---5---------
E|--------------0---------0-0-----------------0-5-5--



Okay, this took me some time to do
but I got it.  Akai makes a great 
machine for picking this all out.
Peace! Have fun playing  






Comments